música
Buscador

Acorde de Your Time Will Come - Amy Macdonald

Letra de Your Time Will Come



Intro: D Bm/F# Em Em2 Em3 A/E Asus4/E (2x)



D Bm/F#

1. Oh the wind is gently blowing as the light begins to fade.

Em Em2 Em3 A/E Asus4/E

I m sick and tired of playing it up, sick of this parade.

D Bm/F#

And your eyes are gently weeping as the sun begins to shine.

Em Em2 Em3 A/E Asus4/E

The end is coming far too soon, I wish I had more time.



D Bm

Ref: So soon your time will come. Get out while you re still young.

Em Em2 Em3 A Asus4

May all your dreams come true for someone like you.

D Bm

So soon your time will come. Get out while you re still young.

Em Em2 Em3 A Asus4

May all your dreams come true so happy for you.



Solo: D Bm Em Em2 Em3 A Asus4



2. Oh my eyes are getting tired as the day begins to break.

I left it all so far behind, my biggest mistake.

And your smile is not like mine, it disappears from time to time

But I believe in you, everything you ll ever do.



Refrain



Solo: D Bm Em Em2 Em3 A Asus4 (2x)

https://www.coveralia.com/acordes/your-time-will-come-amy-macdonald.php



Refrain



Outro: D Bm/F# Em Em2 Em3 A/E Asus4/E fade





Em2 022002

Em3 022003



TABS

for intro and first verse. Then starts the strumming part.



1. Guitar

e |5-5-5-5-5-5-5-5|5-5-5-5-5-5-5-5|7-7-7-7-7-7-7-7|5-5-5-5-5-5-5-5----------|

h |---------------|---------------|---------------|-------------------------|

g |7-7-7-7-7-7-7-7-7-7-7-7-7-7-7-7-7-7-7-7-7-7-7-7-6-6-6-6-7-7-7-7----------|

D |---------------|---------------|---------------|-------------------------|

A |---------------|---------------|---------------|-------------------------|

E |---------------|---------------|---------------|-------------------------|

1 + 2 + 3 + 4 + 1 + 2 + 3 + 4 + 1 + 2 + 3 + 4 + 1 + 2 + 3 + 4 +



2. Guitar(after 4 Bars, when repeating intro )

e |-2---2---2---2-|-2---2---2---2-|-0---0---2---3-|-0---0---0---0--|

h |--------------0|--------------0|--------------0|--------------0-|

g |2-2-2-2-2-2-2--|4-4-4-4-4-4-4--|0-0-0-0-0-0-0--|2-2-2-2-2-2-2---|

D |0---0---0---0---4---4---4---4---2---2---2---2---2---2---2---2---|

A |---------------|---------------|---------------|----------------|

E |---------------|---------------|---------------|----------------|

1 + 2 + 3 + 4 + 1 + 2 + 3 + 4 + 1 + 2 + 3 + 4 + 1 + 2 + 3 + 4 +



Letra subida por: Anónimo

El acorde de Your Time Will Come de Amy Macdonald es una versión de la canción original realizada por colaboradores/usuarios de Coveralia.

¿Has encontrado algún error en esta página? Envíanos tu corrección del acorde