Quantcast
música
Buscador

Acorde de Yo Quiero - Camila

Letra de Yo Quiero

el numero que esta entre"()"  "(12)", es un armonico, 

se toca por encimita de la cuerda sin presionarla

ocultar esta pestaña





INTRO: X2



Fm7 A#m Fm Fm7

E--------------------------------------------------------

A-3---------1-----1---------3-------3--------------------

D--3---------3-----3---------3-------3-------------------

G---1---1-----3-----3---1-----1-1-----1---1--------------

B----4-1-------2-----2-1---------------4-1---------------

e--------------------------------------------------------



A#m C

E--------------------------

A--1--------3-3-3-3-3------

D---3-------2-2-2-2-2------

G----3---1--0-0-0-0-0------

B-----2-1---1-1-1-1-1------

e--------------------------









Fm7 A#m Fm

E-----------------------------------------

A-3---------1-----1---------3-------------

D--3---------3-----3-----1---3------------

G---1---1-----3-----3---1-----1-1---------

B----4-1-------2-----2--------------------

e-----------------------------------------

Fue un dia comùn y corriente, el dia en que me sali a caminar

entre la gente







E--------------------------------------------------------

A-----------------------3-------------1------------------

D------------------------3-------------3-----------------

G-------------------------1---1---------3---1------------

B--------------------------4-1-----------2-1-------------

e--------------------------------------------------------

sin saber lo que el destino me estaba preparando





E--------------------------------------------------------

A-1--------------3---------3--------3--------------------

D--3--------------3---------3--------3------3------------

G---3---1----------1-1-------1-1------1-----3------------

B----2-1-------------------------------4-1--2------------

e--------------------------------------------------------

una sorpresa ya me estaba esperando, poco despues pase por





E--------------------------------------------------------

A--------------------------------------------------------

D------------------------------------3-------------------

G--------------------------2/3--3--1---------------------

B--------------------------1/2--2------------------------

e--------------------------------------------------------

donde hacian cafè, como no tenia mas que hacer pregunte



E--------------------------------------------------------

A---------------------------------3----------------------

D----------------------------------3---------------------

https://www.coveralia.com/acordes/yo-quiero-camila.php

G-----------------------------------1---1----------------

B-------------------------(12)-------4-1-----------------

e--------------------------------------------------------

que si, que si para este flaco habia una mesa



E---------1-----------------------------------------------

A-1-------3-----------------------------------------------

D--3------3-----------------------------------------------

G---3-----1-----------------------------------------------

B----2-1--1-----------------------------------------------

e---------1-----------------------------------------------

y fue asi que me atendio esa belleza.





Fm7 A#m C7 Fm Fm7 A#m C7

no imaginaba nada màs, que llevarla lejos de aqui

(te juro que yo)

Fm A#m C7 Fm Fm7 A#m C7

no podia siquiera hablar, del amor que al verla senti







Fm/Fm7 A#m

yo quie-ero, yo quie-ero, yo quie-ero

(tus besos)

C Fm

yo quie-ero, yo quie-ero, yo quie-ero

(tus encantos)

Fm A#m

yo quie-ero, yo quie-ero, yo quie-ero

(tu miel)

C Fm

o mamacita ven y dame tu miel





PUENTE

oooooooooooooooooooo Fm A#m C Fm x3





Fm A#m

al otro dia sucedio lo siguiente

C Fm

desperte temprano me senti diferente

A#m

no supe la razon de esa mañana tan bella

c Fm

hasta que vi que amanecia con ella





no imaginaba............. se repite





Fm/Fm7 A#m

yo quie-ero, yo quie-ero, yo quie-ero

(tus ojos)

C Fm

yo quie-ero, yo quie-ero, yo quie-ero

(tus caderas)

Fm A#m

yo quie-ero, yo quie-ero, yo quie-ero

(tu piel)

C Fm

o mamacita y tus besos tambièn



Fm A#m C Fm

"yo quiero contigo, morena te lo pido" x3

Letra subida por: Anónimo

Discos en los que aparece este acorde: Todo Cambio , Todo Cambio (Edicion Especial) , Yo Quiero (Cd Single)

El acorde de Yo Quiero de Camila es una versión de la canción original realizada por colaboradores/usuarios de Coveralia.

¿Has encontrado algún error en esta página? Envíanos tu corrección del acorde