Quantcast
música
Buscador

Acorde de Ya Está Bien Así - Nek

Letra de Ya Está Bien Así



Em C D

Ya basta con tus no, qué se yo... dejémoslo aquí!

Em C D

ya basta de no sé, ya veré... ya está bien así!



BIS

Em C D

e------------------------------------------------------

B------------------------------------------------------

G--7/9-12-11--12-11-----11/12-11---------12-11----9----

D-------------------12-----------12---12-------12------

A------------------------------------------------------

E------------------------------------------------------



Em C

De cómo serás, de aquello que harás,

D

si no hablo jamás es porque te respeto,

Em C D

en cambio tú no, tú siempre criticas lo que hago,

si hablo o si me callo.





Em C D

Yo solo quiero de ti,



calor y pecado,

Em C D

y un lecho deshecho por ti-i,



con miles de "sí".



Em C D

Ya basta con tus no, qué se yo... dejémoslo aquí!

Em C D

ya basta de no sé, ya veré... ya está bien así!



BIS

Em C D

e------------------------------------------------------

B------------------------------------------------------

G--7/9-12-11--12-11-----11/12-11---------12-11----9----

D-------------------12-----------12---12-------12------

A------------------------------------------------------

E------------------------------------------------------



Em C

Si todo lo das, si no tienes más,

D

no te estoy pidiendo que sea perfecto,

Em C

quisiera eso sí una hora que una

D

y no divida por pedir la luna.



Em C D

https://www.coveralia.com/acordes/ya-esta-bien-asi-nek.php

Ahora veamos: ¿Quién es?,



¿Quién sigue? ¿Quién cede?

Em C D

Veamos: ¿Quién deja esto aquí?



ya está bien así...!!!



Em C D

Ya basta con tus no, qué se yo... dejémoslo aquí!

Em C D

ya basta de no sé, ya veré... ya está bien así!





BIS

C#m A B

e-----------------------------------------

B-----------------------------------------

G--4/6-9-8--9-8-----8/9-8------9-8---6---- C#m - A - Bsus4 - B

D---------------9---------9--9-----9------ Hmmm...

A-----------------------------------------

E-----------------------------------------



Em C D

Yo solo quiero de ti,



calor y pecado,

Em C D

y un lecho deshecho por ti-i,



ya está bien así.



Em C D de je mos lo a-qui!!

e-------------------------------------------------------

B-------------------------------------------------------

G--7/9-12-11--12-11-----11/12-11---------12-11-------9--

D-------------------12-----------12---12--------12------

A-------------------------------------------------------

E-------------------------------------------------------







Em C D ya-es ta bien a si!!

e---------------------------------------------------------

B---------------------------------------------------------

G--7/9-12-11--12-11-----11/12-11------------12--11------9-

D-------------------12-----------12----12-----------12----

A---------------------------------------------------------

E---------------------------------------------------------





(Sigue acompañando el solo)

Em C D

Ya basta con tus no, qué se yo... dejémoslo aquí!

Em C D

ya basta de no sé, ya veré... ya está bien así!

Letra subida por: Anónimo

Discos en los que aparece este acorde: Una Parte De Mi , Esencial

El acorde de Ya Está Bien Así de Nek es una versión de la canción original realizada por colaboradores/usuarios de Coveralia.

¿Has encontrado algún error en esta página? Envíanos tu corrección del acorde