música
Buscador

Acorde de Y Mas - Tiziano Ferro

Letra de Y Mas





D#m G#m A#

e--------------------------------------------

b--------7~-------7--------------4--------6--

g------8--------8---8----------4--------7----

d----8--------8-------8------6--------8------

a--6--------6-----------6--------------------

E--------------------------4--------6--------



D#m G#m A#

e------------4h6p4----------------------------

b--------7~--------7-6-4----------4--------6--

g------8-----------------6------4--------7----

d----8------------------------6--------8------

a--6------------------------------------------

E---------------------------4--------6--------



D#m G#m A#

El ayer y hoy confundo yo,

D#m G#m A#

el mañana... ya llegará

D#m G#m A#

el espíritu tiene voz,

D#m G#m A#

ahora calla... no canta más.

D#m

Este es el día,

G#m

yo debería

A# D#m

marcharme un año,

G#m

viajar sin más,

A# D#m

sufrir errores,

G#m

ir sin destino

A# D#m

sentir adentro

G#m

esta agonía,

A# D#m G#m A# D#m

que sopla al este

G#m A#

cuando estoy mal.



D#m

Te dejas ir

G#m A#

como meciéndote,

D#m

todo está bien y que,

G#m A#

entérate...

https://www.coveralia.com/acordes/y-mas-tiziano-ferro.php
D#m G#m A#

Lo siento, pero el mundo

D#m

nunca fué tremendo

G#m A# D#m

y quiero más... y más...

G#m A#

y más… y más… y más…



Porque a veces he de admitir

que eres tal y como soy yo,

tan tremendo no debe ser,

tú que vives siempre…. con… tus

temores de

normalidad

que tanto el mundo

no cambiará.

Y así te digo

hasta que puedas

tú rompe todo

asombra a quien

no cree... no,

no cree en ti...



D#m

Te dejas ir

G#m A#

como meciéndote,

D#m

todo está bien y que,

G#m A#

entérate...

D#m G#m A#

Lo siento, pero el mundo

D#m

nunca fué tremendo

G#m A# D#m

y quiero más... y más...

G#m A#

y más… y más… y más…





Probar a ver

si se te olvida que

va todo mal y que

problemas hay,

se desajusta el modo... ¡ya esta dicho!

Ah... tú toma más..

y más... y más…

y más... y más...







Letra subida por: Anónimo

Discos en los que aparece este acorde: Rojo Relativo

El acorde de Y Mas de Tiziano Ferro es una versión de la canción original realizada por colaboradores/usuarios de Coveralia.

¿Has encontrado algún error en esta página? Envíanos tu corrección del acorde