música
Buscador

Acorde de What If I Do - Foo Fighters

Letra de What If I Do



Tuning: Standard



Chords Used



C9 A# Am G# C G F

e---3----6----5----4----3----3----1

B---3----6----5----4----5----3----1

G---0----7----5----5----5----4----2

D---2----8----7----6----5----5----3

A---3----8----7----6----3----5----3

E---x----6----5----4----x----3----1



Intro / Verse:



e-------------------------------------------------------3?-3-3--3-3-3--

B-------------------------------------------------------3--3-3--3-3-3--

G------2-----4-----0-----2-----4-----2-----0-------0----0--0-0--0-0-0--

D---------------------------------------------0h2-------2--2-2--2-2-2--

A---3-----3-----3-----3-----3-----3-----3---------------3--3-3--3-3-3--

E-------------------------------------------------------x--x-x--x-x-x--



INTRO (play Intro / Verse twice)



VERSE 1 (play Intro / Verse four times)



Back and forth that voice of yours

that keeps me up at night

Help me search to find the words

that eat you up inside

I go side to side like the wildest tides in your hurricane

and I only hide what is on my mind because I can't explain



CHORUS



A# Am

What if I do, lord, what if I don't

G# C

I'd have to lose everything just to find you

A# Am

What if I do, lord, what if I don't

G# C

I'd have to lose everything just to find you



VERSE 2 (play Intro / Verse four times)



It's my turn this soul won't burn

so throw me in the fire

Trophies earned and lessons learned

wicked little lies

https://www.coveralia.com/acordes/what-if-i-do-foo-fighters.php

We could pave new roads with the cold gravestones

wind them through the pines

Should I stay or should I go alone

I cannot decide



CHORUS



A# Am

What if I do, lord, what if I don't

G# C

I'd have to lose everything just to find you

A# Am

What if I do, lord, what if I don't

G# C

I'd have to lose everything just to find you



BRIDGE



C G F

Carolina, Caroline

C G F

Carolina, Caroline



SOLO (play intro twice)



CHORUS



A# Am

What if I do, lord, what if I don't

G# C

I'd have to lose everything just to find you

A# Am

What if I do, lord, what if I don't

G# C

I'd have to lose everything just to find you



OUTRO



C G F

Carolina, Caroline

C G F

Carolina, Caroline

C G F

Carolina, Caroline

C G F

Carolina, Caroline





Letra subida por: Anónimo

Discos en los que aparece este acorde: Skin And Bones (Dvd)

El acorde de What If I Do de Foo Fighters es una versión de la canción original realizada por colaboradores/usuarios de Coveralia.

¿Has encontrado algún error en esta página? Envíanos tu corrección del acorde