Quantcast
música
Buscador

Acorde de Wanderings - Lunatic Soul

Letra de Wanderings

intro: [its with the delay, you can remove the (x) ones and put on some delay.)



e|----5-(5)-------------------5-(5)------------------|

B|---------(5)---5---5------------(6)---6---6--------|

G|-------------5---5------------------7---7----------|

D|---------------------------------------------------|

A|--5-----------------------5------------------------|

E|---------------------------------------------------|





Dm Dsus2

I am walking Through the valley, of the shadow of your name



Dm Dsus2

It's been another after-life-time, Since you left me here this way



Dm Dsus2

How about a little game of chess, How about we roll the dice



Dm Dsus2

What can I do, Where should I go now,

Dm Dsus2

I want to look into your eyes



Dm Dsus2

Drifting In the state of limbo

Dm Dsus2

Condemned to idleness



Dm Dsus2

Listen to the sound of distant memories

Bb

Passing through the white hourglass



Chords: Bb - G/Csus2 (x3) Dm Dsus2

solo:



e|---------------------------------------------------------------------------|

B|--------6/5-----5-----------6----------------------------------------------|

G|-------------------7-----5/7-----------------------------------------------|

D|-------------------------------------(x3)----------------------------------|

A|---------------------------------------------------------------------------|

https://www.coveralia.com/acordes/wanderings-lunatic-soul.php

E|---------------------------------------------------------------------------|



Dm Dsus2

Just wandering around...



Dm Dsus2

Looking for the way to my home

Dm Dsus2

I've lived someone else's life...(synth)



Dm Dsus2

Waiting for the perfect moment

Dm Dsus2

I've lost all track of time...(synth)



Dm Dsus2

What can I do, Where should I go now

Dm Dsus2

I want to look into your eyes



Dm Dsus2

Drifting In the state of limbo

Dm Dsus2

Condemned to idleness



Dm Dsus2

Listen to the sound of distant memories

Bb

Passing through the white hourglass



**Chords: Bb - G/Csus2 (x3) Dm Dsus2 [G (x2) Dm Dsus2] x2



G

in the middle of light and darkness in the middle of right and shade

Dm

I was trying to fort your kiss, I was trying to skip..

G Dm Dsus2

Now I'm the soul, Banished to... everlasting wanderings



Dm Dsus2

everlasting wanderings...

Letra subida por: Anónimo

Discos en los que aparece este acorde: Lunatic Soul II

El acorde de Wanderings de Lunatic Soul es una versión de la canción original realizada por colaboradores/usuarios de Coveralia.

¿Has encontrado algún error en esta página? Envíanos tu corrección del acorde