música
Buscador

Acorde de Vorágine - Airbag

Letra de Vorágine

              Fm

E------------------------------------------| Fijensé el tiempo

A-----------------------------4-4-6--------| de las notas,es medio

D--3-3-6-3-5-3-3-3-6-3-3-5-3-3-----3-------| X2 jodido hasta que

G------------------------------------------| le agarran la mano

B------------------------------------------|

E------------------------------------------|



Fm D# Fm

E----------------------------------------------|

A------------------------------4-6-4/6--7------| la " / " es para

D--3-3-6-3-5-3-3-3-6-3-3-5-3-3-----------------| el slide

G----------------------------------------------|

B----------------------------------------------|

E----------------------------------------------|



Las notas de acompañamiento al punteo recomiendo hacerlas quintas

para hacer énfasisen la tónica



En esta parte entra toda la banda y hace como un acompañamiento

mientras el órgano se asentúa bastante:



E---------------------------------------|

A--8-8----------------------------------|

D-----8-6-X-X-6-X-8-X-X-6h8-------------| X8 la " h " significa

G---------------------------------------| hammer

B---------------------------------------| la " x " es para

E---------------------------------------| mutear la cuerda





Les recomiendo que usen palm mute para los dos 8 de la quinta

cuerda al principio,queda más copado.

Fijensé los tiempos y las notas muteadas,

tiene sus vueltitas hasta que le toman la mano.

Queda bueno este punteito medio funky.



Acá empieza a cantar y no hacen nada prácticamente,

asi que aprovechen a afinar si se les canta :P



Empieza con otro punteo cuando dice

"No lo ves, en la altura" que es así:



A#m A#m ________

E---------------------------------------|

A---------------------------------------| Cuidado con las notas

D-3-3-----------------------------------| X2 al aire que van

G-----3-1-0-0-1-0-0-3-0-0-1h0-----------| bastante rápidas

B---------------------------------------|

E---------------------------------------|



A este punteo lo va alternando con este: X2

Fm Fm

E------------------------------------------|

A-----------------------------4-4-6--------|

D--3-3-6-3-5-3-3-3-6-3-3-5-3-3-----3-------| X2

G------------------------------------------|

B------------------------------------------|

E------------------------------------------|

_______



Mientras canta hace acordes abiertos:



D# Fm

En la noche verás,bailarás al amencer y

D# A#m Fm

en la noche vendrás apagando mis incendios



Vuelve a repetir esto:



E---------------------------------------|

A--8-8----------------------------------|

D-----8-6-X-X-6-X-8-X-X-6h8-------------| X8

G---------------------------------------|

B---------------------------------------|

E---------------------------------------|



Ahora mientras canto no se queda sin hacer nada, va haciendo esto:



E---------------------------------------|

A--8-8----------------------------------|

D-----8-6-X-X-6-X-X-X-X-X-X-------------| X8

G---------------------------------------|

B---------------------------------------|

E---------------------------------------|







Arranca nuevamente con esto



A#m A#m ________

E---------------------------------------|

A---------------------------------------|

D-3-3-----------------------------------| X2

G-----3-1-0-0-1-0-0-3-0-0-1h0-----------|

B---------------------------------------|

E---------------------------------------|

https://www.coveralia.com/acordes/voragine-airbag.php



A este punteo lo va alternando con este: X2

Fm Fm

E------------------------------------------|

A-----------------------------4-4-6--------|

D--3-3-6-3-5-3-3-3-6-3-3-5-3-3-----3-------| X2

G------------------------------------------|

B------------------------------------------|

E------------------------------------------|

________



Acordes abiertos mientras canta:



D# Fm

y en la noche verás,bilarás al amanecer

D# A#m Fm Cm G# Fm

y en tu abismo caerás al ritual de mis deseos ee eos oo

A#m D# Fm

esta ves no ha sido fácil

A#m D# Fm

esta ves no ha sido fácil





Ahora va este punteo:





E---------------------------------------| Ese tres final de la tablatura

A---------------------------------------| lo va alternando

D--3----------3----------3--------------| X8 cada dos compaces con un tres

G---1-3h1-3h1--1-3h1-3h1----------------| pero en la tercer cuerda

B---------------------------------------|

E---------------------------------------|





Después arranca otras vez desde " No los ves.." con lo mismo





A#m A#m ________

E---------------------------------------|

A---------------------------------------|

D-3-3-----------------------------------| X2

G-----3-1-0-0-1-0-0-3-0-0-1h0-----------|

B---------------------------------------|

E---------------------------------------|



A este punteo lo va alternando con este: X2

Fm Fm

E------------------------------------------|

A-----------------------------4-4-6--------|

D--3-3-6-3-5-3-3-3-6-3-3-5-3-3-----3-------| X2

G------------------------------------------|

B------------------------------------------|

E------------------------------------------|

________



D# Fm

y esa noche la vida nos juega laberintos

D# A#m Fm Cm G# Fm

y mi instinto de paz esta noche te encontro

A#m D# Fm

esta ves no ha sido fácil

A#m D# Fm

esta ves no ha sido fácil

A#m D# Fm

esta ves noha sido fácil







Ahora va el "solo" :





E---------------------------------------| En la nota final se hace

A---------------------------------------| un bending(3b),cada dos

D--3----------3-------------------------| X8 compaces se intercala terminando

G---1-3h1-3h1--1-3h1-3h1-3b-------------| normal en el espacio 3 de la

B---------------------------------------| cuarta cuerda

E---------------------------------------|



E---------------------------------------| En la nota final se hace

A---------------------------------------| un bending(11b),cada

D--15--------------15-------------------| X8 dos compaces se intercala

G----11-15h11-15h11--11-15h11-15h11--11b| terminandoen el espacio 15

B---------------------------------------| de la cuarta cuerda

E---------------------------------------|



Final:





E--------------------4-1----------------|

A---------------3-2-1-------------------|

D-3---------3-1-------------------------| X3

G--1-3h1-3h1----------------------------|

B---------------------------------------|

E---------------------------------------|



Discos en los que aparece este acorde: Voragine , Voragine (Edicion Deluxe)

El acorde de Vorágine de Airbag es una versión de la canción original realizada por colaboradores/usuarios de Coveralia.

¿Has encontrado algún error en esta página? Envíanos tu corrección del acorde