Quantcast
música
Buscador

Acorde de Tres Veces Te Engañé - Paquita La Del Barrio

Letra de Tres Veces Te Engañé

                  E

1--0--0-----0-----0

2--2--2--3--2--3--2

3--------4-----4---





1--0--0-----0-----0

2--2--2--3--2--3--2

3--------4-----4---



A

1-----------0------

2--0--0--0--2--3--2

3--1--1--1-----4--2



E

1--0--0-----0-----0

2--2--2--3--2--3--2

3--------4-----4---





1--0--0-----0-----0

2--2--2--3--2--3--2

3--------4-----4---



A

1---------------------

2--0--0--2--3--3--2--0

3--1--1--2--4--4--2--1--2

4-----------------------2



A A7

Tu que me dejabas

D

yo que te esparaba

E

yo que tontamente

A

siempre te era fiel



A A7

desgraciadamente

D

hoy fue diferente

E

me tope con alguien

https://www.coveralia.com/acordes/tres-veces-te-engane-paquita-la-del-barrio.php

A

creo que sin querer



E

tres veces te engañe

tres veces te engañe

A

tres veces te engañe



E

la primera por coraje

la segunda por capricho

A

la tercera por placer



E

tres veces te engañe

tres veces te engañe

A

tres veces te engañe



A7 D

y despues de esas tres veces

E

y despues de esas tres veces

A

no quiero volverte a ver



A A7

dices que me quieres

D

y que me perdonas

E

pero lo que tu hagas

A

no me importa ya



A A7

hoy me siento viva

D

me siento importante

E

y de lo que pase

A

yo me encargare

Letra subida por: Anónimo

Discos en los que aparece este acorde: Personalidad , Personalidad

El acorde de Tres Veces Te Engañé de Paquita La Del Barrio es una versión de la canción original realizada por colaboradores/usuarios de Coveralia.

¿Has encontrado algún error en esta página? Envíanos tu corrección del acorde