música
Buscador

Acorde de Together - Sam Smith

Letra de Together





Chords Used: Though you really only have to play the top 3 or 4 strings-ish to get a similar sound

A#m9 A#m7 F#maj F#7 Fm7 F7



A#m9 A#m7 F#maj F#7 Fm7 F7

e|---8-----9-----2-----2----1----1-------------------------------------------|

B|---6-----6-----2-----2----1----1-------------------------------------------|

G|---6-----6-----3-----3----1----2-------------------------------------------|

D|---6-----6-----4-----2----1----1-------------------------------------------|

A|---8-----8-----4-----4----3----3-------------------------------------------|

E|---6-----6-----2-----2----1----1-------------------------------------------|





X is mute - hard to explain but the timing should be okay once you get into the

or don't groove of the song

strum at - Basically down-up strums in the same beat during the X's

all - A#m7 is only strummed once in the pattern, at the end before it repeats



A#m9 A#m7

D-U-x-x-x-x-x-U-U-x-x-x-U

e|-8-8-----------8-8-------9----|

B|-6-6-----------6-6-------6----|

G|-6-6-----------6-6-------6----|

D|-6-6-----------6-6-------6----|

A|-8-8-----------8-8-------8----|

E|-6-6-----------6-6-------6----|





Guitar 2 - Asterisk symbols ** - when this is played; after the first "Together"



e|--11/13-13-11-13---11/13-13-11------11/13-13-11-13---11/13-13-11-13--------|

B|--------------------------------------------------------------------11-----|

G|---------------------------------------------------------------------------|

D|---------------------------------------------------------------------------|

A|---------------------------------------------------------------------------|

E|---------------------------------------------------------------------------|







Intro



A#m9 A#m7 A#m9 A#m7

A#m9 A#m7 ****** A#m9 A#m7



Verse



A#m9 A#m7 A#m9 A#m7

Kiss my lips and taste the Sauvignon

A#m9 A#m7 A#m9 A#m7

I wrap the vines around your thighs

A#m9 A#m7 A#m9 A#m7

I can see the kind of tip you're on

A#m9 A#m7 A#m9 A#m7

There's no confusion in your eyes

https://www.coveralia.com/acordes/together-sam-smith.php


Chorus



F#maj7 F7

Let's unwind

A#m9 A#m7 A#m9 A#m7 ******

Together Together

F#maj7 F7

Ease our minds

A#m9 A#m7 A#m9 A#m7 ******

Together Together



Verse 2



A#m9 A#m7 A#m9 A#m7

Taking sips to push the moment on,

A#m9 A#m7 A#m9 A#m7

But it's just the bottle that's run dry

A#m9 A#m7 A#m9 A#m7

Lose the watch 'cause we got nothing on

A#m9 A#m7 A#m9 A#m7

And I'm not keeping track of time



Chorus



F#maj7 F7

Let's unwind

A#m9 A#m7 A#m9 A#m7 ******

Together Together

F#maj7 F#7 Fm7 F7

Ease.......our minds

A#m9 A#m7 A#m9 A#m7 ******

Together Together

A#m9 A#m7 A#m9 A#m7 ******

Together Together

A#m9 A#m7 A#m9 A#m7 ******

Together



F#maj7 F#7 Fm7 F7

Ease.......our minds



Outro:



A#m9 A#m7 A#m9 A#m7

Together Together

A#m9 A#m7 A#m9 A#m7

Together Together

A#m9 A#m7 A#m9 A#m7

Together Together

A#m9 A#m7 A#m9 A#m7 ******

Together Together





Letra subida por: Anónimo

Discos en los que aparece este acorde: In The Lonely Hour (Japanese Edition)

El acorde de Together de Sam Smith es una versión de la canción original realizada por colaboradores/usuarios de Coveralia.

¿Has encontrado algún error en esta página? Envíanos tu corrección del acorde