música
Buscador

Acorde de Todo Preso Es Político - Patricio Rey Y Sus Redonditos De Ricota

Letra de Todo Preso Es Político

intro

1--------------------------------------------------------------

2---------------2-0-2-0-2--------------------------------------

3-1-1/1/1/1/1/1-----------4-------------------------------------

4--------------------------------------------------------------

5--------------------------------------------------------------

6--------------------------------------------------------------



intro

si esta carcel sigue asi

B

todo preso es politico uoooooo

intro

reos de la sociedad

B

si tu preso es politico uoooooooo



verso



C#m B

el ascensor ya sube

C#m B

tu confesion ya sube



medio

https://www.coveralia.com/acordes/todo-preso-es-politico-patricio-rey-y-sus-redonditos-de-ricota.php

G F# B



D A B

intro 2

1)-------------------------------------------------------------

2)-------------------------------------------------------------

3)-------------------------------------------------------------

4)----------------------2-4------------------------------------

5)---------2-4--0-0-3-4----------------------------------------

6)-0-0-3-4-----------------------------------------------------



intro 2

B Bm7

detenganlos

intro2

B Bm7

detenganloooos

D A B



intro 2

detenganme

intro 2

detengalooooos



Letra subida por: Anónimo

Discos en los que aparece este acorde: Un Baion Para El Ojo Idiota

El acorde de Todo Preso Es Político de Patricio Rey Y Sus Redonditos De Ricota es una versión de la canción original realizada por colaboradores/usuarios de Coveralia.

¿Has encontrado algún error en esta página? Envíanos tu corrección del acorde