música
Buscador

Acorde de This Time Around - Hanson

Letra de This Time Around



Intro (Piano transcribed for guitar):

E------------------------------------------1---------------------------

B---1----------------------------1---1--4------------------------------

G------3--1--3--1--1-----1--1h3---------------3--1--1-----1--1h3--0----

D---------------------3--------------------------------3---------------

A----------------------------------------------------------------------

E----------------------------------------------------------------------





Verse:

G# F# C# G#

It's getting colder in this ditch where I lie

G# F# C# G#

I'm feeling older and I'm wondering why

G# F# C# G#

I heard they told her it was tell and live or die

G# F# C# G#

I didn't know her but I know why she lied

G# F# C# G#

I didn't know her but I know why she died





Chorus:

F# C#

You can't say I didn't give it

G#

I won't wait another minute

F# C# G#

We're on our way this time around

F# C#

You can't say I didn't give it

G#

https://www.coveralia.com/acordes/this-time-around-hanson.php
I won't wait another minute

F# C# F#

We're on our way this time around

F# A#m C#

And we won't go down





Verse:

I heard them say that dreams should stay in your head

Well I feel ashamed of things that I've said

Put on these chains and you live a free life

Well I'd rather bleed just to know why I die



Repeat Chorus





Bridge:

D# C#

All I know is that fear has got to go



This time around



Guitar Riff:

E-----------------------------------

B-----------------------------------

G---5--6p5-6p5--5--6p5-6p5--5------- (Repeat 2 times)

D-----------------------------------

A-----------------------------------

E-----------------------------------







Letra subida por: Anónimo

El acorde de This Time Around de Hanson es una versión de la canción original realizada por colaboradores/usuarios de Coveralia.

¿Has encontrado algún error en esta página? Envíanos tu corrección del acorde