música
Buscador

Acorde de Te Necesito - Ov7

Letra de Te Necesito



1-----10---8------------------10---8---------------------

2-------------12--10---8---------------12---10-12--------

3--------------------------------------------------------

4--------------------------------------------------------

5--------------------------------------------------------

6--------------------------------------------------------



1--10--8----------------------------------------------

2---------12---10--8------8---10--12--10--8-10/12-----

3----------------------9------------------------------

4-----------------------------------------------------

5-----------------------------------------------------

6-----------------------------------------------------









E G#m

No digas que es tarde

D A E

Que mucho esperaste , ya no piensas volver

G#m

Di que aun hay tiempo

D A C#m

para recobrar lo que perdimos ayer

D B

Por que yo nunca te olvide



E G#m

Te fuiste de pronto

D A E

poniendole fin sin previo aviso a este amor

G#m

y al verme sola

D A C#m

jure arrancarte de raiz pero no

D B

la verdad, yo tampoco pude olvidar





A D

Te necesito, no hay mas que hablar

A D E F#m

que haran mis manos? si jamas te vuelvo a tocar

D

Te necesito, no hay mas que hablar

F#m D E F#m A#m E B

sin ti las horas duran mas que la eternidad





F# A#m

Fue todo un mal Sueño

E B F#

Tan solo me importa que hoy estes junto a mi

A#m E B

Rompe el silencio y sella mis labios

https://www.coveralia.com/acordes/te-necesito-ov7.php

D#m

con un beso sin fin

E C#

Esta vez prometeme que jamas te voy a perder.





B E

Te necesito, no hay mas que hablar

B E F# G#m

que haran mis manos? si jamas te vuelvo a tocar

E

Te necesito, no hay mas que hablar

G#m E F# B

sin ti las horas duran mas que la eternidad





B E

Te necesito, no hay mas que hablar

B E F# G#m

que haran mis manos? si jamas te vuelvo a tocar

E

Te necesito, no hay mas que hablar

G#m E F# G#m

sin ti las horas duran mas que la eternidad



B F# Fm

Yo no tengo vida sin ti y por eso estoy aqui?

E F#

rescatando el tiempo que vivir lejos de ti.







Pequeña pausa y un aumento de tono mas...







C F

Te necesito, no hay mas que hablar

C F G Am

que haran mis manos? si jamas te vuelvo a tocar

F

Te necesito, no hay mas que hablar

Am F G C

sin ti las horas duran mas que la eternidad





C F

Te necesito, no hay mas que hablar

C F G Am

que haran mis manos? si jamas te vuelvo a tocar

F

Te necesito, no hay mas que hablar

Am F G C

sin ti las horas duran mas que la eternidad



Letra subida por: Anónimo

Discos en los que aparece este acorde: Siete Latidos , Punto , Lo Mejor De Ov7 , Desde El Palacio De Los Deportes

El acorde de Te Necesito de Ov7 es una versión de la canción original realizada por colaboradores/usuarios de Coveralia.

¿Has encontrado algún error en esta página? Envíanos tu corrección del acorde