música
Buscador

Acorde de Te He Echado De Menos - Los Secretos

Letra de Te He Echado De Menos

E : 022100

F#: 244322

G#m:466444

D#m:004342

B: 224442

C#m:446654

A: 002220







[intro]



E F# G#m D#m

E F# B*

[B* significa el siguiente riff sobre B:]



E-||--2--2---2--2----

B-||--4--5---4--5----

G-||--4--4---4--4----

D-||--4--4---4--4----

A-||--2--2---2--2----

E-||--2--2---2--2----





D#m E F# G#m

Tanto tiempo caminando

D#m E F#

y aún no se dónde voy

D#m E F# G#m

estoy siguiendo cada paso

D#m E F#

y me olvidé de quien soy

C#m G#m B F#

oigo el viento, que en tus manos

A E F#

fué una razón para creer.



E F#

Te he echado de menos hoy

G#m D#m

exactamente igual que ayer

E F#

confío en que siempre estaré

B*

contigo aunque no estés.





D#m E F# G#m

Sólo el tiempo que he soñado

D#m E F#

me recordó el amanecer

D#m E F# G#m

con días grises y olvidados

D#m E F#

que vuelven una y otra vez

C#m G#m B F#

fué aquel río que cruzamos

A E F#

y nunca más cruzaré.



E F#

https://www.coveralia.com/acordes/te-he-echado-de-menos-los-secretos.php

Te he echado de menos hoy

G#m D#m

exactamente igual que ayer

E F#

confío en que siempre estaré

G#m

contigo aunque no estés.

E F#

Te he echado de menos hoy

G#m D#m

exactamente igual que ayer

E F#

confío en que siempre estaré

B*

contigo aunque no estés.





D#m E F# G#m

E-||-------------------------------------------------

B-||--4-4-4-----4--4--5--7--7----7-7-5-4-4/5-4-------

G-||-------------------------------------------6-6---

D-||-------------------------------------------------

A-||-------------------------------------------------

E-||-------------------------------------------------



D#m E F# G#m

E-||----------------------------------------------------------------------------

B-||--------4-------------4-------------------------------------4---------------

G-||--4-4-6---6-4-----4-6---6-4--4------------3-4---3-4-6---4-6-----6-4---6/4---

D-||----------------6--------------6---4----6---------------------------6-------

A-||---------------------------------6------------------------------------------

E-||----------------------------------------------------------------------------







C#m G#m B F#

Oigo el viento, que en tus manos

A E F#

fué una razón para creer.



E F#

Te he echado de menos hoy

G#m D#m

exactamente igual que ayer

E F#

confío en que siempre estaré

G#m

contigo aunque no estés.

E F# G#m D#m

Te he echado de menos hoy

E F# B*

Te he echado de menos hoy



[outtro]

E F# G#m D#m

E F# B*







Letra subida por: Anónimo

El acorde de Te He Echado De Menos de Los Secretos es una versión de la canción original realizada por colaboradores/usuarios de Coveralia.

¿Has encontrado algún error en esta página? Envíanos tu corrección del acorde