música
Buscador

Acorde de Tan Sólo - Estopa

Letra de Tan Sólo

-7-8-7--7--5-7-5--5--3-5-3--3--3-5-3-5-7-5 (pausa) 1 cuerda + aguda 

------7--7------5--5------3--3------ 2º cuerda + aguda,

7-5-7-8-7-5-7-5-7-15-14-10-12-10-8-7-5-3-12-10-8-10 continua la pausa



-------7-----7---------7-----7---------5----5---

-----0---0-----0-----0---0-----0-----0---0----0-

---0-------0-------0-------0-------0-------0----

------------------------------------------------

-7---------------6---------------5--------------

------------------------------------------------

sigue x aki abajo

-------5-----5----------5-----5----------3-----3----------5----------7----7

-----0---0-----0------0---0------------0---0-----0------0---0------0---0--0

---0-------0--------0-------0---0----0-------0--------0-------0---0-----0

--------------------------------------------------------------------------

4-----------------3----------------2----------------3-----------5----

------------------------------------------------------------

asi toda la cancion asta cuando dice: "y aqui se esta cayendo

el cielo"

acordes

Bm-7- Em-0- C-8- Am-5- D-5-

-7- -8- -8- -5- -7-

-7- -7- -9- -5- -7-

-9- -5- -10- -7- -0-

-9- -7- -10- -7- -0-

https://www.coveralia.com/acordes/tan-solo-estopa.php

-7- -0- -8- -5- -0-

Bm

Y aquí se está cayendo el cielo

Em

No tengo a dónde ir

C Am

Me duermo en cada esquina, están hechas para mí

Bm Em

Ahora no te reconozco no me acuerdo, no sé

C D

Lo siento no puedo recordarlo todo



(2 veces)

-7-8-7--7--5-7-5--5--3-5-3--3--3-5-3-5-7-5

------7--7------5--5------3--3------------



Em

Y ahora se pone a llover vuelvo a mi cama de siempre

C G

Pero sigo estando Tan sólo, tan sólo, tan sólo, tan sólo,

C D

Tan sólo, tan sólo, tan sólo, tan sólo



2 veces y al acabar la segunda despues de Re acabais en Mim y ya esta

Letra subida por: Anónimo

Discos en los que aparece este acorde: Estopa , Estopa (14 Canciones)

El acorde de Tan Sólo de Estopa es una versión de la canción original realizada por colaboradores/usuarios de Coveralia.

¿Has encontrado algún error en esta página? Envíanos tu corrección del acorde