música
Buscador

Acorde de Summerland - Lunatic Soul

Letra de Summerland

into:

--

e|-------------------------------------------------------------------------------------|

B|------------------------------------------------------------------7------------------|

G|-------------------6---6---------------6---6-----------4---4---4---------4-----------|

D|------------6--------6----------6--------6-----(x2)---6-6-6-6-6-----------6----(x4)--|

A|-----4-------------------4-------------------------------4---4-------------4---------|

E|-------------------------------------------------------------------------------------|





C#sus2

Black procession in the rain

BSus2 C#sus2

Lovely brand new hearse

C#sus2

Everyone cries, Everyone cares

BSus2 C#sus2

Or maybe just pretends



G#m F# C#sus2...

Oh, it's your big moment, by the way



C#sus2

Cold at heart, Indifference

BSus2 C#sus2

Thought they were your best friends

C#sus2

Tears & flowers From the one

BSus2 C#sus2

You never would expect



G#m F# C#sus2

Oh, it's your big moment, by the way

G#m F# A

Would you like to tell them something?



A C C#m

Do you remember what you said

G#m F# A

When I looked into your eyes For the first time

A C C#m

I know you're not quite ready yet

G#m A

But there's nothing to be afraid of

C#sus2

In your Summerland.



e|-------------------------------------------------------------------------------------|

https://www.coveralia.com/acordes/summerland-lunatic-soul.php

B|------------------------------------------------------------------7------------------|

G|-------------------6---6---------------6---6-----------4---4---4---------4-----------|

D|------------6--------6----------6--------6-----(x2)---6-6-6-6-6-----------6----(x4)--|

A|-----4-------------------4-------------------------------4---4-------------4---------|

E|-------------------------------------------------------------------------------------|



C#sus2

On the wall, In the waiting room

BSus2 C#sus2

Still life in a frame

C#sus2

At the end of the corridor

BSus2 C#sus2

Someone screams your name



G#m F# C#sus2

Oh, it's your big moment by the way

G#m F# A

Would you like to tell him something?



A C C#m

Do you remember what you said

G#m F# A

When I looked into your eyes For the first time



A C C#m

I know you're not quite ready yet

G#m A

But there's nothing to be afraid of

C#sus2

In your Summerland.



e|---------------------------------------------------------------------------|

B|---------------------------------------------------------------------------|

G|---------------------------------------------------------------------------|

D|---------------------------------------------------------------2/4-4-4-----|

A|-----2/4-4-4---4-4--2/4-4-4-4-------2/4-4-4--4-4----2/4-4-4----------------|

E|---------------------------------------------------------------------------|



e|-------------------------------------------------------------------------------------|

B|------------------------------------------------------------------7------------------|

G|-------------------6---6---------------6---6-----------4---4---4---------4-----------|

D|------------6--------6----------6--------6-----(x2)---6-6-6-6-6-----------6----(x2)--|

A|-----4-------------------4-------------------------------4---4-------------4---------|

E|-------------------------------------------------------------------------------------|



At the end : C#sus2

Letra subida por: Anónimo

Discos en los que aparece este acorde: Lunatic Soul

El acorde de Summerland de Lunatic Soul es una versión de la canción original realizada por colaboradores/usuarios de Coveralia.

¿Has encontrado algún error en esta página? Envíanos tu corrección del acorde