música
Buscador

Acorde de Suck My Kiss - Red Hot Chili Peppers

Letra de Suck My Kiss

 F G A# F5 G5 A#5 C G# A* E4ADD7ADD3 E DSUS2 D5 A B4 G4 E5 A5

e1 3 1 X X 1 3 4 5 X 0 0 X 0 X X X X

B1 3 3 X X 3 5 4 5 X 0 3 3 2 X X X X

G2 4 3 X X 3 5 5 6 1 1 2 2 2 4 0 X 2

D3 5 3 3 5 3 5 6 7 0 2 0 0 2 3 0 2 2

A3 5 1 3 5 1 3 6 7 1 2 X X 0 X X 2 0

E1 3 X 1 3 X X 4 5 0 0 X X X X X 0 X

Intro:F,G,A#,F,G,A#

After That:

e---------------------------------------------------------------|

B---------------------------------------------------------------|

G-----------------------------7/9-9-9-9-------------------------|

D----------3-3-3-3--5/7-7-7-7-----------------------------------|

A--3/5-5-5------------------------------------------------------|

E---------------------------------------------------------------|

Verse

Verse:F5,G5,F5,G5,F5,G5,F5,GS,A#5

F5 G5 F5 G5

should of been, could of been

F5 G5

would of been dead

F5 G5

if i don't get the message

A#5

goin' to my head

F5 G5 F5 G5

i am what i am

F5 G5

most motherfuckers

A#5

don't give a damn

C G#

awh baby think you can

C G# G# A*

be my girl, i'll be your man

F5 G5

somone full of fun

F5 G5

do me till i'm well done

F5 G5

little bo peep

F5 G5 A#5

comin' from my stun gun

F5 G5

beware, take care

F5 G5

most motherfuckers

F5 G5 A#5

have a cold ass stare

C G#

awh baby please be there

C G# G# A*

suck my kiss cut me my share

F5,G5,F5,G5,E4ADD7ADD3

Chorus

E DSUS2 D5 DSUS2 D5 A

hit me you can't hurt me,suck my kiss

E5 DSUS2 D5 DSUS2 D5 A B4 G4

kiss me please pervert me, stick with this

E DSUS2 D5 DSUS2 D5 A5

is she talking dirty?

E5 DSUS2 D5 DSUS2 D5 A5

give to me sweet sacred bliss

you mouth was made to suck my kiss

Verse 2: Same as last verse

look at me can't you see

all i really want to be

is free from a world

that hurts me

i need relief

do you want me girl

https://www.coveralia.com/acordes/suck-my-kiss-red-hot-chili-peppers.php

to be your thief

awh baby just for you

i'd steal anything that you want me to

K-I-S-S-I-N-G

chikka chikka dee

do me like a banshee

low brow is how

swimming in the sound

of bow wow wow

awh baby do me now

do me here i do allow

Chorus Again end with E4ADD7ADD3

Solo:

e--------------------------------------------------------------------------|

B--------------------------------------------------------------------------|

G-15h17p15-0-0-0-(x3)-15h18p15-0-0-0-(x3)-15p0-0-0-0-(x3)-10h12-12p0-(x3)--|

D--------------------------------------------------------------------------|

A--------------------------------------------------------------------------|

E--------------------------------------------------------------------------|



e--------------------|

B--------------------|

G-10h12-12-12-10/12--|

D--------------------|

A--------------------|

E--------------------|



e-10-------10-------10-10-------10-10-------10-10-10-10-10-10---|

B-11^(1/4)-11^(1/4)----11^(1/4)----11^(1/4)-11-11-11-11-11-11---|

G---------------------------------------------------------------|

D---------------------------------------------------------------|

A---------------------------------------------------------------|

E---------------------------------------------------------------|



e-10-10-10-12-12-12-12-13-13-13-13------------------------------|

B-11-11-11-13-13-13-13-15-15-15-15------------------------------|

G---------------------------------------------------------------|

D---------------------------------------------------------------|

A---------------------------------------------------------------|

E---------------------------------------------------------------|



e-13-13-13-13-15-15-15-15-15-15-15-15-15-15-15-15-17-17-17-17---|

B-15-15-15-15-17-17-17-17-17-17-17-17-17-17-17-17-19-19-19-19---|

G---------------------------------------------------------------|

D---------------------------------------------------------------|

A---------------------------------------------------------------|

E---------------------------------------------------------------|



e-18-18-18-18-18-18-18-18-18-18-18-18---------------------------|

B-20-20-20-20-20-20-20-20-20-20-20-20---------------------------|

G---------------------------------------------------------------|

D---------------------------------------------------------------|

A---------------------------------------------------------------|

E---------------------------------------------------------------|





FIRST VERSE AGAIN

Chorus: Same as last Chorus

hit me you can't hurt me, suck my kiss

kiss me please pervert me, stick with this

is she talking dirty?

give to me sweet sacred bliss

your mouth was made to suck my kiss













Letra subida por: Anónimo

El acorde de Suck My Kiss de Red Hot Chili Peppers es una versión de la canción original realizada por colaboradores/usuarios de Coveralia.

¿Has encontrado algún error en esta página? Envíanos tu corrección del acorde