música
Buscador

Acorde de Stuck - Norah Jones

Letra de Stuck



Intro:



G Dm F E

e|-----x----------------1--------------------------------------0----|

B|-----x----------------3------------------1-------------------0----|

G|-----x----------------2------------------2-------------------1----|

D|-----------0--0-2-3---0----3-3-3-2-0-3---3----3-3-3-2-0--2---2----|

A|-------0h2-------------------------------3----------------2-------|

E|---3-------------------------------------------------------0------|









G Dm

Hey shall we wade through the room for the street

F

And finally to me

E

He asked me what I'm drinking







G Dm

My friend johnny tugging on my sleeve

F

Asked if I wanna leave

E

And what I'm really thinking is







G Dm F E

Why can't it be easy, easy

G Dm F E

Why don't you leave me, leave me, leave me be







D Am

I can't see us swaying

D Am

I can't hear what you're saying







G, Dm, F, E







I'm sitting here stuck and plastered to my seat

I think of a reason to leave

When you finally start speaking

https://www.coveralia.com/acordes/stuck-norah-jones.php





I'll take a long stroll walked down washington street

Half asleep on my feet

Half aware if I'm dreaming





I'll go home alone, a sinking stone, a switched-off telephone

I'll go on briefly, a frozen breeze, a fallen down factory



I still see us swaying

But I can't hear what you're saying





Solo





I just lost the plot

Got a little copped

Been a little knocked





I just hit a wall

Had a little fall

I felt a swinging wrecking ball





And why should that be

Why don't you tell me

Why don't you tell me





I'm sure you'll tell me

Why don't you tell me

I guess you'd tell me



Tell me







Used chords:



EADGBe

G----------320033

Dm---------xx0231

F----------133211

E----------022100

D----------xx0232

Am---------x02210







Letra subida por: Anónimo

Discos en los que aparece este acorde: The Fall (Deluxe Edition) , The Fall , Itunes Festival: London 2012 (Ep)

El acorde de Stuck de Norah Jones es una versión de la canción original realizada por colaboradores/usuarios de Coveralia.

¿Has encontrado algún error en esta página? Envíanos tu corrección del acorde