música
Buscador

Acorde de Stranger In A Strange Land - 30 Seconds To Mars

Letra de Stranger In A Strange Land



(For acoustic, use Bbm F# Ab Ebm)







E:-----------------------------------------------------------------|

B:-----------------------------------------------------------------|

G:-----------------------------------------------------------------|

D:-----------------------------------------------------------------|

A:-9999-9-9999-9-99...---------------------------------------------|

E:-----------------------------------------------------------------|





F#5 Eb5 Bb4 x4







F#5 Eb5 Bb4 F#5 Eb5 Bb4 F#5 Eb5 Bb4 F#5 Eb5 Bb4 F#5 Eb5 Bb4 F#5 Eb5 Bb4

E:-14~~~~-13~~~~-------------14~~~~-13~~~~----------------------------------|

B:---------------11~~~~--------------------11~~~~---------------------------|

G:--------------------------------------------------11~~~~~~~~~~~~~~~~~~~~~-|

D:--------------------------------------------------------------------------|

A:--------------------------------------------------------------------------|

E:--------------------------------------------------------------------------|







Bb F# Eb Ab (no chords, but low bass notes)





Bb F#

Enemy of mine, I'll fuck you like the devil.

Eb Ab

Violent inside, beautiful and evil.

Bb F#

I'm a ghost. You're an angel.

Eb Ab

We're one and the same, just remains of an age.

F#5 Eb5 Bb5 F#5 Eb5 Bb5

Lost in a day dream, what do you see?

F#5 Eb5 Bb5 F#5 Eb5 Bb5

If you're looking for Jesus, get on your knees!





(intro)





Bb F# Eb Ab



Bb F#

Enemy of mine, I'm just a stranger in a strange land.

Eb Ab

Running out of time, better go, go, go!

F#5 Eb5 Bb5 F#5 Eb5 Bb5

Angel or a demon, I gave up my soul,

F#5 Eb5 Bb5 F#5 Eb5 Bb5

I'm guilty of treason, I've abandoned control.





(intro)

Tonight...





https://www.coveralia.com/acordes/stranger-in-a-strange-land-30-seconds-to-mars.php

F#5

The end is coming,

Everybody run now,

Bb5

We're gonna live forever,

F#5

Gonna live forever tonight,

Bb5

Tonight, Tonight.





The end is coming

Everybody run now,

We're gonna live forever,

Gonna live forever tonight

Tonight, Tonight.



The end is coming,

Everybody run now,

We're gonna live forever,

Gonna live forever tonight,

Tonight, Tonight.



The end is coming,

Everybody run now,

We're gonna live forever,

Gonna live forever tonight,

Tonight, tonight.



The end is coming,

Everybody run now,

We're gonna live forever,

Gonna live forever tonight.





(Intro)



F#5 Eb5 Bb5

Lost in a daydream,

F#5 Eb5 Bb5

What do you see?

F#5 Eb5 Bb5

If you're looking for Jesus,

F#5 Eb5 Bb5

Then get on your knees!





F#5 Eb5 Bb5

Angel or demon?

F#5 Eb5 Bb5

I gave up my soul.

F#5 Eb5 Bb5

I'm guilty of treason,

F#5 Eb5 Bb5

I've abandoned control.



Bb5

Your soul!



F#5



Letra subida por: Anónimo

Discos en los que aparece este acorde: This Is War , This Is War (Deluxe Edition)

El acorde de Stranger In A Strange Land de 30 Seconds To Mars es una versión de la canción original realizada por colaboradores/usuarios de Coveralia.

¿Has encontrado algún error en esta página? Envíanos tu corrección del acorde