Quantcast
música
Buscador

Acorde de Sto Nel Rock - Sonohra

Letra de Sto Nel Rock



Intro

Am-Dm-F-E



Verso

Am Dm F

Cado spesso anch'io come te

E

Perché?

Am Dm F E

Penso che stasera mi berrò più di me

Am Dm

Chi lo sa, già lo fa

F E

La tua testa non resta qui

Am Dm F E Am

Ordina per me, io torno subito

Am Dm F

Mangio rabbia anch'io come te

E

Più di te

Am Dm F E

Dormo niente, ma dormi tu perché

Am Dm

Se lo sai dillo a me

F E

Questa vita si compra così

Am Dm F E Am C E

Con l'anima tua venderò la mia



Estribillo

F C

Hey, sto nel rock adesso

E

Non mi cambierai

F C

Hey, sto nel pop lo stesso

E F

Non mi cambierai mai

F C

Hey, cambia tutto adesso

E F

E non mollare mai



Intro 2

Am-Dm-F-E



Verso2

Am Dm F

Ci son dentro anch'io senza lei

E

Senza te

Am Dm F

La mia stella brilla, credici

E

Più di me

Am Dm

Come sto, come stai

F E

Sono vecchio e non cambierò

Am Dm

Stai al posto mio

F E Am C E

Mi dileguo ma



Estribillo 2

F C

Hey, sto nel rock adesso

E

Non mi cambierai

https://www.coveralia.com/acordes/sto-nel-rock-sonohra.php

F C

Hey, sto nel pop lo stesso

E F

Non mi cambierai mai

C

Hey, cambia tutto adesso

E F

E non mollare mai



Puente

Am-G#-G-F#-F//E



---------------8-10-12-10-8-------------8-10-12-10-8------------8-10-

-10v-10v-10v-10--------------9v-9v-9v-9--------------8v-8v-8v-8------

---------------------------------------------------------------------

---------------------------------------------------------------------

---------------------------------------------------------------------

---------------------------------------------------------------------



-12-10----------------------------------------------------------------

-------7v-6-6-5-3-----------------------------------------------------

---------------------------------5-7-7b-7-----5-7-7b-7-5------5-7-7b-5

--------------------7-5---5-7v-7----------6v-6-----------5v-5---------

------------------------7---------------------------------------------

----------------------------------------------------------------------



----------------------------------------------------------------------

----------------------------------------------------------------------

----------------------------------------------------------------------

-4v-3-3-2-0-----------------------------------------------------------

----------------------------------------------------------------------

----------------------------------------------------------------------

b= bend o estirar

Estribillo 3



F C

Hey, sto nel rock adesso

E

Non mi cambierai

F C

Hey, sto nel pop lo stesso

E F

Non mi cambierai mai

C

Hey, cambia tutto adesso

E F

E non mollare mai



Final



Am-Dm-F-E x3 [Am//Am*//Am]-[Dm//Dm*//Dm]-[F//F*//F]-[E*-E-E$//E**]//[Am]



Despues, la ultima agrega estos acordes



Am* -5- Dm* -5- F* -3- E*-3- E** -0- E$ -0-

-8- -8- -1- -0- -1- -3-

-5- -5- -2- -1- -1- -1-

-7- -7- -1- -2- -2- -2-

-7- -5- -3- -2- -2- -2-

-5 -x- -1- -0- -0- -0-

Durante el tema hace varias veces este punteo

-------------------------------------------------------------

-------------------------------------------------------------

-------------------------------------------------------------

---------5-7-------------------------------------------------

-----7-8-----------------------------------------------------

-------------------------------------------------------------



Letra subida por: Anónimo

Discos en los que aparece este acorde: Meta

El acorde de Sto Nel Rock de Sonohra es una versión de la canción original realizada por colaboradores/usuarios de Coveralia.

¿Has encontrado algún error en esta página? Envíanos tu corrección del acorde