música
Buscador

Acorde de Spread Your Wings - Queen

Letra de Spread Your Wings

Intro:2x 

D

E|-------------------|

B|-3--------3--------|

G|----2---------2----|

D|--0---0-----0---0--|

A|-------------------|

E|-------------------|



Verso 1:

D E7 G Gm D

Sammy was low Just watching the show Over and over again

D E7 G Gm D

Knew it was time He'd made up his mind To leave his dead life behind



Verso 2:

Bm Bm/A Bm/G#

His boss said to him 'Boy you'd better begin

G A D

To get those crazy notions right out of your head



Pré-Refrão:

Em C7

Sammy who do you think that you are?

D E Gm D

You should've been sweeping up the Emerald bar`



(Acompanhando as notas Gm e D, em "Emerald bar", uma segunda gui.t faz isso:

E|-1-0----1-0-------|-------------|

B|-----3------3--3--|-------------|

G|------3------3----|-------------|

D|------------------|-2/4--42--0-|

A|------------------|-------------|

E|------------------|-------------|



Refrão:

D Bm E7 A

Spread your wings and fly away Fly away far away

D Bm E7 A

Spread your little wings and fly away Fly away far away

Gm D

Pull yourself together 'Cos you know you should do better

A#5/9 D

That's because you're a free man



ocultar esta pestaña E|---------2--|

B|---------3--|

G|---0---0-2--|

D|--0---0--0--|

A|-1--3-------|

E|------------|



Verso 3:

Bm Bm/A Bm/G#

He spends his evenings alone in his hotel room

A F#7/4 F#7

Keeping his thoughts to himself he'd be leaving soon

Bm Bm/A Bm/G#

Wishing he was miles and miles away

A F#7/4 F#7

Nothing in this world nothing would make him stay



Solo 1:

|---------------------------------------------------------------------------|

|-10b12----12r10p8-12-12b14----14r12p10-13b15----15r13p10-13b15----15r13p12-|

|---------------------------------------------------------------------------|

|---------------------------------------------------------------------------|

|---------------------------------------------------------------------------|

|---------------------------------------------------------------------------|



|----------------------------------------------|

|-13b15----15r13p12-15b17vr15-12---------------|

|--------------------------------13------------|

|-----------------------------------14-12-11v--|

|----------------------------------------------|

|----------------------------------------------|



Verso 3:

D

Since he was small

E7

Had no luck at all

G D

Nothing came easy to him

D

Now it was time

E7

He'd made up his mind

G D

'This could be my last chance'



Verso 4:

Bm Bm/A Bm/G#

His boss said to him 'now listen boy

G

You're always dreaming

A D

You've got no real ambition you won't get very far



Pré-Refrão:

Em C7

Sammy boy don't you know who you are?

D E Gm D

Why can't you be happy at the Emerald bar?'

ocultar esta pestaña E|-1-0----1-0-------|-------------|

B|-----3------3--3--|-------------|

G|------3------3----|-------------|

D|------------------|-2/4--42--0-|

A|------------------|-------------|

E|------------------|-------------|

https://www.coveralia.com/acordes/spread-your-wings-queen.php



Refrão:

So honey

D Bm

Spread your wings and fly away

E7 A

Fly away far away





D Bm

Spread your little wings and fly away

E7 A

Fly away far away

(Faça junto com essa parte do Refrão!)

|--------------------------------------------------------------------------------|

|--------------------------------------------------------------------------------|

|-11__r9p7------------7--------------------------9b11__r------------------------|

|----------9-7------------9-7-___------------7-----------------------------------|

|-----------------7h9---------9p75---7/9-----------------/5-----5-------7-5-----|

|------------------------------------------------------------------7-7-------7---|



|-------------------------------------------------------|

|----------------------------------10b11v----10v----3---|

|---------------------7---10r9-7------------------------|

|-----------------7-9-----------------------------------|

|-5-5-----5---7/9---------------------------------------|

|-----7-------------------------------------------------|



Gm

Pull yourself together

D

'Cos you know you should do better

A#5/9 D

That's because you're a free man



E|---------2--|

B|---------3--|

G|---0---0-2--|

D|--0---0--0--|

A|-1--3-------|

E|------------|



Come on honey





Solo final:

|----------------------------------------------------------|

|----------------------------------------------------------|

|---------7----7p6-----------7---7-7p6__--------7---9b11--|

|----------------------------------------------------------|

|-5---7/9------------5---7/9-------------5---7/9-----------|

|----------------------------------------------------------|



|---------------10______---------------------------------------------|

|--------------------10_------------------------------7-------7h8p7--|

|-------7--9b11_________--11r9p7---------7-7----7-7-------7----------|

|-7--9-----------------------------------7-7----7-9------------------|

|--------------------------------5---7/9-----------------------------|

|--------------------------------------------------------------------|



|----7------------------___-------7--------7--9-------10--10--------7------------|

|-------7--8----8-------8p7-----7---8------------8------------7--------10--------|

|----------------------------7---9------9------------------------7---------7-----|

|-9------------------9-----------------------------------------------------------|

|--------------------------------------------------------------------------------|

|--------------------------------------------------------------------------------|



|-10----7---------------10----9--7-----------5----------------------|

|----------10-----------------------7-----7--------7p5-----7p5------|

|--------------7--7------------------------------------7-------7----|

|-------------------------------------------------------------------|

|-------------------------------------------------------------------|

|-------------------------------------------------------------------|



|----------------------------------------------10--------------|

|-10--------10---8---7----------------------7--------7--7p5----|

|----------------------------7--7h9---7--9------------------7--|

|-----7--------------------7-----------------------------------|

|--------------------------------------------------------------|

|--------------------------------------------------------------|



|-------5--------------10-----___------------10--------------------------|

|----------5--------7------7--7p5---------7---------7---7p5--------------|

|-5-----------7--9------------------7--9--------------------7----7p4-7---|

|------------------------------------------------------------------------|

|----7-------------------------------------------------------------------|

|------------------------------------------------------------------------|



Quando tiver quase desapareçendo faça issu!

|---------------------7--9--10--------------14--14-------|

|-----------7--8--10-------------------------------------|

|-----7--9------------------------11--12/14-14------14---|

|-7h9----------------------------------------------------|

|--------------------------------------------------------|

|--------------------------------------------------------|



|------14-14-14------------------------14---------|

|-------------------------------------------------|

|------14-14-14------14----------------------14...|

|-12-------------12------12--12----14-------------|

|-------------------------------------------------|

|-------------------------------------------------|





E Bm D A



|||1|| |||||| |||||| ||||||

|23|||

Letra subida por: Anónimo

¿Has encontrado algún error en esta página? Envíanos tu corrección del acorde