Quantcast
música
Buscador

Acorde de Smells Like Teen Spirit (edit) - Nirvana

Letra de Smells Like Teen Spirit (edit)

Standard Tuning 



^ = Bend

x = mute note

h = hammer-on

~ = vibrato



INTRO:

Guitar (clean):

e|-----------------|------------------|-----------------|------------------|

B|-----------------|------------------|-----------------|------------------|

G|-------------3-3-|-0------------6-6-|-------------3-3-|-0------------6-6-|

D|-3--3-3-xxxx-3-3-|-06--6-6-xxxx-6-6-|-3--3-3-xxxx-3-3-|-06--6-6-xxxx-6-6-|

A|-3--3-3-xxxx-1-1-|-06--6-6-xxxx-4-4-|-3--3-3-xxxx-1-1-|-06--6-6-xxxx-4-4-|

E|-1--1-1-xxxx-----|--4--4-4-xxxx-----|-1--1-1-xxxx-----|--4--4-4-xxxx-----|



Guitar (heavy dist)

e|-----------------|------------------|-----------------|------------------|

B|-----------------|------------------|-----------------|------------------|

G|-------------3-3-|-0------------6-6-|-------------3-3-|-0------------6-6-|

D|-3--3-3-xxxx-3-3-|-06--6-6-xxxx-6-6-|-3--3-3-xxxx-3-3-|-06--6-6-xxxx-6-6-|

A|-3--3-3-xxxx-1-1-|-06--6-6-xxxx-4-4-|-3--3-3-xxxx-1-1-|-06--6-6-xxxx-4-4-|

E|-1--1-1-xxxx-----|--4--4-4-xxxx-----|-1--1-1-xxxx-----|--4--4-4-xxxx-----|



e|-----------------|------------------|-----------------|------------------|

B|-----------------|------------------|-----------------|------------------|

G|-------------3-3-|-0------------6-6-|-------------3-3-|-0------------6-6-|

D|-3--3-3-xxxx-3-3-|-06--6-6-xxxx-6-6-|-3--3-3-xxxx-3-3-|-06--6-6-xxxx-6-6-|

A|-3--3-3-xxxx-1-1-|-06--6-6-xxxx-4-4-|-3--3-3-xxxx-1-1-|-06--6-6-xxxx-4-4-|

E|-1--1-1-xxxx-----|--4--4-4-xxxx-----|-1--1-1-xxxx-----|--4--4-4-xxxx-----|



VERSE:





Guitar:

e|---------1-------|-----------------|---------1-------|-----------------|

B|--------1--------|-----------------|--------1--------|-----------------|

G|-----------------|-----------------|-----------------|-----------------|

D|-----------------|-----------------|-----------------|-----------------|

A|-----------------|-----------------|-----------------|-----------------|

E|-----------------|-----------------|-----------------|-----------------|







Guitar:

e|---------1-------|-----------------|---------1-------|-----------------|

B|--------1--------|-----------------|--------1--------|-----------------|

G|-----------------|-----------------|-----------------|-----------------|

D|-----------------|-----------------|-----------------|-----------------|

A|-----------------|-----------------|-----------------|-----------------|

E|-----------------|-----------------|-----------------|-----------------|

Load up on guns, and bring your friends its fun to lose







Guitar:

e|---------1-------|-----------------|---------1-------|-----------------|

B|--------1--------|-----------------|--------1--------|-----------------|

G|-----------------|-----------------|-----------------|-----------------|

D|-----------------|-----------------|-----------------|-----------------|

A|-----------------|-----------------|-----------------|-----------------|

E|-----------------|-----------------|-----------------|-----------------|

and to pretend, She's over bored and self-assured, I know I know a dirty word



PRECHORUS





Guitar:

e|-----------------|

B|-6---6---6---6---|

G|5---5---5---5----| Repeat 4x this part.

D|-----------------|

A|-----------------|

E|-----------------|







Hello hello hello | Hello hello hello| Hello, hello, hello| Hello, hello, hello

how low how low how low



Guitar:

e|-----------------|------------------|-----------------|------------------|

B|-----------------|------------------|-----------------|------------------|

G|-------------3-3-|-0------------6-6-|-------------3-3-|-0------------6-6-|

D|-3--3-3-xxxx-3-3-|-06--6-6-xxxx-6-6-|-3--3-3-xxxx-3-3-|-06--6-6-xxxx-6-6-|

A|-3--3-3-xxxx-1-1-|-06--6-6-xxxx-4-4-|-3--3-3-xxxx-1-1-|-06--6-6-xxxx-4-4-|

E|-1--1-1-xxxx-----|--4--4-4-xxxx-----|-1--1-1-xxxx-----|--4--4-4-xxxx-----|



With the lights out, its less dangerous here we are now, entertain us



e|-----------------|------------------|-----------------|------------------|

B|-----------------|------------------|-----------------|------------------|

G|-------------3-3-|-0------------6-6-|-------------3-3-|-0------------6-6-|

D|-3--3-3-xxxx-3-3-|-06--6-6-xxxx-6-6-|-3--3-3-xxxx-3-3-|-06--6-6-xxxx-6-6-|

A|-3--3-3-xxxx-1-1-|-06--6-6-xxxx-4-4-|-3--3-3-xxxx-1-1-|-06--6-6-xxxx-4-4-|

E|-1--1-1-xxxx-----|--4--4-4-xxxx-----|-1--1-1-xxxx-----|--4--4-4-xxxx-----|



I feel stupid, and contagious, here we are now, entertain us



e|-----------------|------------------|-----------------|------------------|

B|-----------------|------------------|-----------------|------------------|

G|-------------3-3-|-0------------6-6-|-------------3-3-|-0------------6-6-|

D|-3--3-3-xxxx-3-3-|-06--6-6-xxxx-6-6-|-3--3-3-xxxx-3-3-|-06--6-6-xxxx-6-6-|

A|-3--3-3-xxxx-1-1-|-06--6-6-xxxx-4-4-|-3--3-3-xxxx-1-1-|-06--6-6-xxxx-4-4-|

E|-1--1-1-xxxx-----|--4--4-4-xxxx-----|-1--1-1-xxxx-----|--4--4-4-xxxx-----|





A mulatto, An albino A mosquito My libido, yeah

e|--------------|----------------------------|

B|--------------|----------------------------|

G|------------3^|----------------------------|

D|-3--0-3-4-----|-10-10-10--8-8-8-8-6-6-6-6--| Repeat 2x

A|-3--0-3-4-----|-10-10-10--8-8-8-8-6-6-6-6--|

E|-1--0-1-2-----|-8--8--8---6-6-6-6-4-4-4-4--|

hey! hey!





Guitar:

e|---------1-------|-----------------|---------1-------|-----------------|

B|--------1--------|-----------------|--------1--------|-----------------|

G|-----------------|-----------------|-----------------|-----------------|

D|-----------------|-----------------|-----------------|-----------------|

A|-----------------|-----------------|-----------------|-----------------|

E|-----------------|-----------------|-----------------|-----------------|







Guitar:

e|---------1-------|-----------------|---------1-------|-----------------|

B|--------1--------|-----------------|--------1--------|-----------------|

G|-----------------|-----------------|-----------------|-----------------|

D|-----------------|-----------------|-----------------|-----------------|

A|-----------------|-----------------|-----------------|-----------------|

E|-----------------|-----------------|-----------------|-----------------|

I'm worse at what what I do best, and for this gift I feel blessed





Guitar:

e|---------1-------|-----------------|---------1-------|-----------------|

B|--------1--------|-----------------|--------1--------|-----------------|

G|-----------------|-----------------|-----------------|-----------------|

D|-----------------|-----------------|-----------------|-----------------|

https://www.coveralia.com/acordes/smells-like-teen-spirit--edit--nirvana.php

A|-----------------|-----------------|-----------------|-----------------|

E|-----------------|-----------------|-----------------|-----------------|

our little group, has always been, and always will until the end



PRECHORUS



Guitar:

e|-----------------|

B|-6---6---6---6---|

G|5---5---5---5----| Repeat 4x this part.

D|-----------------|

A|-----------------|

E|-----------------|



Hello hello hello | Hello hello hello| Hello, hello, hello| Hello, hello, hello

how low how low how low



Guitar:

e|-----------------|------------------|-----------------|------------------|

B|-----------------|------------------|-----------------|------------------|

G|-------------3-3-|-0------------6-6-|-------------3-3-|-0------------6-6-|

D|-3--3-3-xxxx-3-3-|-06--6-6-xxxx-6-6-|-3--3-3-xxxx-3-3-|-06--6-6-xxxx-6-6-|

A|-3--3-3-xxxx-1-1-|-06--6-6-xxxx-4-4-|-3--3-3-xxxx-1-1-|-06--6-6-xxxx-4-4-|

E|-1--1-1-xxxx-----|--4--4-4-xxxx-----|-1--1-1-xxxx-----|--4--4-4-xxxx-----|



With the lights out, its less dangerous here we are now, entertain us



e|-----------------|------------------|-----------------|------------------|

B|-----------------|------------------|-----------------|------------------|

G|-------------3-3-|-0------------6-6-|-------------3-3-|-0------------6-6-|

D|-3--3-3-xxxx-3-3-|-06--6-6-xxxx-6-6-|-3--3-3-xxxx-3-3-|-06--6-6-xxxx-6-6-|

A|-3--3-3-xxxx-1-1-|-06--6-6-xxxx-4-4-|-3--3-3-xxxx-1-1-|-06--6-6-xxxx-4-4-|

E|-1--1-1-xxxx-----|--4--4-4-xxxx-----|-1--1-1-xxxx-----|--4--4-4-xxxx-----|



I feel stupid, and contagious, here we are now, entertain us



e|-----------------|------------------|-----------------|------------------|

B|-----------------|------------------|-----------------|------------------|

G|-------------3-3-|-0------------6-6-|-------------3-3-|-0------------6-6-|

D|-3--3-3-xxxx-3-3-|-06--6-6-xxxx-6-6-|-3--3-3-xxxx-3-3-|-06--6-6-xxxx-6-6-|

A|-3--3-3-xxxx-1-1-|-06--6-6-xxxx-4-4-|-3--3-3-xxxx-1-1-|-06--6-6-xxxx-4-4-|

E|-1--1-1-xxxx-----|--4--4-4-xxxx-----|-1--1-1-xxxx-----|--4--4-4-xxxx-----|



A mulatto, An albino A mosquito My libido, yeah



e|--------------|----------------------------|

B|--------------|----------------------------|

G|------------3^|----------------------------|

D|-3--0-3-4-----|-10-10-10--8-8-8-8-6-6-6-6--| Repeat 2x

A|-3--0-3-4-----|-10-10-10--8-8-8-8-6-6-6-6--|

E|-1--0-1-2-----|-8--8--8---6-6-6-6-4-4-4-4--|



hey! hey!



Guitar One (Solo):



e|--------------|---------------|-------------|-------------|

B|--------------|---------------|-------------|-------------|

G|-----8h10-----|-8-8^----6--5--|-6--5--------|-------------|

D|-10--------6--|---------------|-------8-6-8-|-8^----6--5--|

A|--------------|---------------|-------------|-------------|

E|--------------|---------------|-------------|-------------|



e|-------------|--------------|-------------|--------------|

B|-------------|--------------|-------------|--------------|

G|-------------|--------------|-------------|--------------|

D|-6--5--6--5--|-6--5--6/5----|-6--5--6--5--|-6--5--6/5----|

A|-------------|-----------8--|-------------|-----------8~~|

E|-------------|--------------|-------------|--------------|



VERSE:







Guitar:

e|-----------------|

B|-6---6---6---6---|

G|5---5---5---5----| Repeat 4x this part.

D|-----------------|

A|-----------------|

E|-----------------|



Hello hello hello | Hello hello hello| Hello, hello, hello| Hello, hello, hello

how low how low how low



Guitar:

e|-----------------|------------------|-----------------|------------------|

B|-----------------|------------------|-----------------|------------------|

G|-------------3-3-|-0------------6-6-|-------------3-3-|-0------------6-6-|

D|-3--3-3-xxxx-3-3-|-06--6-6-xxxx-6-6-|-3--3-3-xxxx-3-3-|-06--6-6-xxxx-6-6-|

A|-3--3-3-xxxx-1-1-|-06--6-6-xxxx-4-4-|-3--3-3-xxxx-1-1-|-06--6-6-xxxx-4-4-|

E|-1--1-1-xxxx-----|--4--4-4-xxxx-----|-1--1-1-xxxx-----|--4--4-4-xxxx-----|



With the lights out, its less dangerous here we are now, entertain us



e|-----------------|------------------|-----------------|------------------|

B|-----------------|------------------|-----------------|------------------|

G|-------------3-3-|-0------------6-6-|-------------3-3-|-0------------6-6-|

D|-3--3-3-xxxx-3-3-|-06--6-6-xxxx-6-6-|-3--3-3-xxxx-3-3-|-06--6-6-xxxx-6-6-|

A|-3--3-3-xxxx-1-1-|-06--6-6-xxxx-4-4-|-3--3-3-xxxx-1-1-|-06--6-6-xxxx-4-4-|

E|-1--1-1-xxxx-----|--4--4-4-xxxx-----|-1--1-1-xxxx-----|--4--4-4-xxxx-----|



I feel stupid, and contagious, here we are now, entertain us



e|-----------------|------------------|-----------------|------------------|

B|-----------------|------------------|-----------------|------------------|

G|-------------3-3-|-0------------6-6-|-------------3-3-|-0------------6-6-|

D|-3--3-3-xxxx-3-3-|-06--6-6-xxxx-6-6-|-3--3-3-xxxx-3-3-|-06--6-6-xxxx-6-6-|

A|-3--3-3-xxxx-1-1-|-06--6-6-xxxx-4-4-|-3--3-3-xxxx-1-1-|-06--6-6-xxxx-4-4-|

E|-1--1-1-xxxx-----|--4--4-4-xxxx-----|-1--1-1-xxxx-----|--4--4-4-xxxx-----|



A mulatto, An albino A mosquito My libido,



e|-----------------|------------------|-----------------|------------------|

B|-----------------|------------------|-----------------|------------------|

G|-------------3-3-|-0------------6-6-|-------------3-3-|-0------------6-6-|

D|-3--3-3-xxxx-3-3-|-06--6-6-xxxx-6-6-|-3--3-3-xxxx-3-3-|-06--6-6-xxxx-6-6-|

A|-3--3-3-xxxx-1-1-|-06--6-6-xxxx-4-4-|-3--3-3-xxxx-1-1-|-06--6-6-xxxx-4-4-|

E|-1--1-1-xxxx-----|--4--4-4-xxxx-----|-1--1-1-xxxx-----|--4--4-4-xxxx-----|



A denial A denial A denial A denial



e|-----------------|------------------|-----------------|------------------|

B|-----------------|------------------|-----------------|------------------|

G|-------------3-3-|-0------------6-6-|-------------3-3-|-0------------6-6-|

D|-3--3-3-xxxx-3-3-|-06--6-6-xxxx-6-6-|-3--3-3-xxxx-3-3-|-06--6-6-xxxx-6-6-|

A|-3--3-3-xxxx-1-1-|-06--6-6-xxxx-4-4-|-3--3-3-xxxx-1-1-|-06--6-6-xxxx-4-4-|

E|-1--1-1-xxxx-----|--4--4-4-xxxx-----|-1--1-1-xxxx-----|--4--4-4-xxxx-----|



A denial A denial A denial A denial



e|--------------|--------------|

B|--------------|--------------|

G|--------------|--------------|

D|-3------------|--------------|

A|-3------------|--------------|

E|-1------------|--------------|

A denial....................







Letra subida por: Anónimo

Discos en los que aparece este acorde: Smells Like Teen Spirit (Cd Single)

El acorde de Smells Like Teen Spirit (edit) de Nirvana es una versión de la canción original realizada por colaboradores/usuarios de Coveralia.

¿Has encontrado algún error en esta página? Envíanos tu corrección del acorde