música
Buscador

Acorde de Sintoma De La Infeccion - Malon

Letra de Sintoma De La Infeccion

Intro



e|----------------------------------------------------------------------|

B|----------------------------------------------------------------------|

G|----------------------------------------------------------------------|

D|----------------------------------------------------------------------|X2

A|-------------------------------------------------------------5--------|

E|2-2-2-0-2-2-2-2-2-2--0-2-2-2-2-2-2--0-2-2-2-2-2-2--0-2-2-2-2-3--------|

................... ............. ............. .........



Riff1



e|----------------------------------------------------------------------|

B|----------------------------------------------------------------------|

G|----------------------------------------------------------------------|

D|----------------------------------------------------------------------|

A|-------------------------------------------------------------5--------|

E|2-2-2-0-2-2-2-2-2-2--0-2-2-2-2-2-2--0-2-2-2-2-2-2--0-2-2-2-2-3--------|

................... ............. ............. .........



Alguna vez vendrá el fin sin el principio

de reaccionar ante la puta succión

donde la ciencia pasa, su vestigio contagia



Riff2



e|--------------------------------------------------|

B|--------------------------------------------------|

G|--------------------------------------------------|

D|--------------------------------------------------|

A|--------------------------------------------------|

E|2-2-2-0-2-2-2-2-2-2--0-2-2-2-2-2-2--0-2-2-2-2-2-2-|

................... ............. .............



e|---------------------------|

B|---------------------------|

G|---------------------------|

D|---------------------------|

A|---------------------------|

E|-0-2-2-2-2-3-2-0-3-2-0-2-0-|

.........................



donde el hombre sucumbe

la tierra desangra.



Riff3



e|----------------------------------------------------------------------|

B|----------------------------------------------------------------------|

G|----------------------------------------------------------------------|

D|----------5-----------------------------------------------------------|

A|-2--5--3--3--7-5-4-----2--5--3----------------------------------------|

E|-0--3--1-----5-3-2-----0--3--1--1-1-1-1-1-----------------------------|



Síntoma de la infección

tu emoción



e|----------------------------------------------------------------------|

B|----------------------------------------------------------------------|

G|----------------------------------------------------------------------|

D|----------5---------------------5---------5---------------------------|

A|-2--5--3--3--7-5-4-----2--5--3--3---------3---------------------------|

E|-0--3--1-----5-3-2-----0--3--1----1-1-1-1-----------------------------|

viaja sin ver

o al mirar es lo peor.





e|----------------------------------------------------------------------|

B|----------------------------------------------------------------------|

G|----------------------------------------------------------------------|

D|----------------------------------------------------------------------|

A|-------------------------------------------------------------5--------|

E|2-2-2-0-2-2-2-2-2-2--0-2-2-2-2-2-2--0-2-2-2-2-2-2--0-2-2-2-2-3--------|

................... ............. ............. .........





Saber si al despertar

te encontrarás también

como explicar por qué

si el porqué no lo advertiste.



e|--------------------------------------------------|

B|--------------------------------------------------|

G|--------------------------------------------------|

D|--------------------------------------------------|

A|--------------------------------------------------|

E|2-2-2-0-2-2-2-2-2-2--0-2-2-2-2-2-2--0-2-2-2-2-2-2-|

................... ............. .............



e|---------------------------|

B|---------------------------|

G|---------------------------|

D|---------------------------|

A|---------------------------|

E|-0-2-2-2-2-3-2-0-3-2-0-2-0-|

.........................



Observación real taladrando la mentira

la falsedad verbal arrastrada por la ira.





e|----------------------------------------------------------------------|

B|----------------------------------------------------------------------|

G|----------------------------------------------------------------------|

D|----------5-----------------------------------------------------------|

A|-2--5--3--3--7-5-4-----2--5--3----------------------------------------|

E|-0--3--1-----5-3-2-----0--3--1--1-1-1-1-1-----------------------------|



Síntoma de la infección

tu emoción

e|----------------------------------------------------------------------|

B|----------------------------------------------------------------------|

G|----------------------------------------------------------------------|

D|----------5---------------------5---------5---------------------------|

A|-2--5--3--3--7-5-4-----2--5--3--3---------3---------------------------|

E|-0--3--1-----5-3-2-----0--3--1----1-1-1-1-----------------------------|



viaja sin ver

o al mirar es lo peor.



estribillo X2



Riff 4



e|----------------------------------------------------------------------|

B|----------------------------------------------------------------------|

G|----------------------------------------------------------------------|

D|-9------10------9-----------10----9------10-------9-------------------|

A|-7-7-9--8-8-10--7-7-9--8----8-----7-7-9--8--8-10--7-7-9---------------|

E|-----7------8-------7--6--6-----------7-------8-------7--6-7-6-5-6-5--|

. . . . . . . ...........





https://www.coveralia.com/acordes/sintoma-de-la-infeccion-malon.php

e|-----------------------------------------------------------------------|

B|-----------------------------------------------------------------------|

G|-----------------------------------------------------------------------|

D|-9------10------9-----------10-9-7---9------10-------9-----------------|

A|-7-7-9--8-8-10--7-7-9--8----8--7-5---7-7-9--8--8-10--7-7-9-------------|

E|-----7------8-------7--6--6--------------7-------8-------7--6-7-6-5-6-5|

. . . . . . . ...........



Solo:

base riff1 X2



riff3 X2



e|----------------------------------------------------------------------|

B|----------------------------------------------------------------------|

G|----------------------------------------------------------------------|

D|-9------10------9-----------10----9------10-------9-------------------|

A|-7-7-9--8-8-10--7-7-9--8----8-----7-7-9--8--8-10--7-7-9---------------|

E|-----7------8-------7--6--6-----------7-------8-------7--6-7-6-5-6-5--|

. . . . . . . ...........



ohhh oohh



e|-----------------------------------------------------------------------|

B|-----------------------------------------------------------------------|

G|-----------------------------------------------------------------------|

D|-9------10------9-----------10-9-7---9------10-------9-----------------|

A|-7-7-9--8-8-10--7-7-9--8----8--7-5---7-7-9--8--8-10--7-7-9-------------|

E|-----7------8-------7--6--6--------------7-------8-------7--6-7-6-5-6-5|

. . . . . . . ...........



oohh ooohhhh





e|----------------------------------------------------------------------|

B|----------------------------------------------------------------------|

G|----------------------------------------------------------------------|

D|----------------------------------------------------------------------|

A|-------------------------------------------------------------5--------|

E|2-2-2-0-2-2-2-2-2-2--0-2-2-2-2-2-2--0-2-2-2-2-2-2--0-2-2-2-2-3--------|

................... ............. ............. .........





Alguna vez vendrá el fin sin el principio

de reaccionar ante la puta succión

Saber si al despertar

te encontrarás también



e|--------------------------------------------------|

B|--------------------------------------------------|

G|--------------------------------------------------|

D|--------------------------------------------------|

A|--------------------------------------------------|

E|2-2-2-0-2-2-2-2-2-2--0-2-2-2-2-2-2--0-2-2-2-2-2-2-|

................... ............. .............



e|---------------------------|

B|---------------------------|

G|---------------------------|

D|---------------------------|

A|---------------------------|

E|-0-2-2-2-2-3-2-0-3-2-0-2-0-|

.........................



como explicar por qué

si el porqué no lo advertiste.



e|----------------------------------------------------------------------|

B|----------------------------------------------------------------------|

G|----------------------------------------------------------------------|

D|----------5-----------------------------------------------------------|

A|-2--5--3--3--7-5-4-----2--5--3----------------------------------------|

E|-0--3--1-----5-3-2-----0--3--1--1-1-1-1-1-----------------------------|



Síntoma de la infección

tu emoción



e|----------------------------------------------------------------------|

B|----------------------------------------------------------------------|

G|----------------------------------------------------------------------|

D|----------5---------------------5---------5---------------------------|

A|-2--5--3--3--7-5-4-----2--5--3--3---------3---------------------------|

E|-0--3--1-----5-3-2-----0--3--1----1-1-1-1-----------------------------|

viaja sin ver

o al mirar es lo peor.



e|----------------------------------------------------------------------|

B|----------------------------------------------------------------------|

G|----------------------------------------------------------------------|

D|----------5-----------------------------------------------------------|

A|-2--5--3--3--7-5-4-----2--5--3----------------------------------------|

E|-0--3--1-----5-3-2-----0--3--1--1-1-1-1-1-----------------------------|



Síntoma de la infección

tu emoción



e|----------------------------------------------------------------------|

B|----------------------------------------------------------------------|

G|----------------------------------------------------------------------|

D|----------5---------------------5---------5---------------------------|

A|-2--5--3--3--7-5-4-----2--5--3--3---------3---------------------------|

E|-0--3--1-----5-3-2-----0--3--1----1-1-1-1-----------------------------|



proyección sin solución

del arruinado planeta.



Final



e|----------------------------------------------------------------------|

B|----------------------------------------------------------------------|

G|----------------------------------------------------------------------|

D|----------------------------------------------------------------------|

A|-------------------------------------------------------------5--------|

E|2-2-2-0-2-2-2-2-2-2--0-2-2-2-2-2-2--0-2-2-2-2-2-2--0-2-2-2-2-3--------|

................... ............. ............. .........



e|--------------------------------------------------|

B|--------------------------------------------------|

G|--------------------------------------------------|

D|--------------------------------------------------|

A|--------------------------------------------------|

E|2-2-2-0-2-2-2-2-2-2--0-2-2-2-2-2-2--0-2-2-2-2-2-2-|

................... ............. .............



e|---------------------------|

B|---------------------------|

G|---------------------------|

D|---------------------------|

A|---------------------------|

E|-0-2-2-2-2-3-2-0-3-2-0-2-0-|

.........................

Letra subida por: Anónimo

El acorde de Sintoma De La Infeccion de Malon es una versión de la canción original realizada por colaboradores/usuarios de Coveralia.

¿Has encontrado algún error en esta página? Envíanos tu corrección del acorde