música
Buscador

Acorde de Si Te Da La Gana - Hany Kauam

Letra de Si Te Da La Gana



INTRO



(Am F C G)



E -0-0---0-1-3-1-1---1-0---0-0---1-0-3---

B -----1-----------1-----3-----1---------

G ---------------------------------------

D ---------------------------------------

A ---------------------------------------

E --------------------------------------- X2



Am F

No tengo ganas de escucharte más

C G

Ya todo el tiempo gritas sin parar

Am F

Estoy cansado de esta situación

C G

Mejor me voy y vuelvo a ver el sol



Am F

Ya no duermo en varias semanas

C G

Puedes irte si te da la gana

Am F

Vamos mal de pelea en pelea

C G

Hoy yo me voy, si, y tu te quedas





CORO



C G

( Que esta vida es pa’ gozarla

Dm

No me esperes

F

o me esperas si te da la gana

C G

https://www.coveralia.com/acordes/si-te-da-la-gana-hany-kauam.php

Porque hoy no tengo ganas

Dm

De escucharte

F

Hoy yo salgo y hablamos mañana )X2





*** Se repite el intro una vez

Las estrofas una vez

Y el coro 2 veces (igual)



Am

Que esta vida no es larga

F

Que vivir tengo ganas



C G Dm F

C G F F



*** CORO X2



C G Dm

QUE ESTA VIDA, QUE ESTA VIDA

F

Puedes irte si te da la gana

C G Dm

PORQUE HOY NO TENGO GANAS de escucharte

F F|

Hoy yo salgooo



Y HABLAMOS MAÑANA



Am C F G C|C|C|

e |---------------------------------------

B |-3/5-3-1---1-3-5-------1-1-1-----------

G |---------2-----------------------------

D |---------------------------------------

A |---------------------------------------

E |---------------------------------------

Letra subida por: Anónimo

Discos en los que aparece este acorde: Hany Kauam

El acorde de Si Te Da La Gana de Hany Kauam es una versión de la canción original realizada por colaboradores/usuarios de Coveralia.

¿Has encontrado algún error en esta página? Envíanos tu corrección del acorde