música
Buscador

Acorde de Sabes - Reik

Letra de Sabes

 Bm   G    D     A   Em

e----2----3----2----0----0----| CAPO EN EL PRIMER TRASTO

B----3----0----3----2----0----|

G----4----0----2----2----0----|

D----4----0----0----2----2----|

A----2----2----X----0----2----|

E----X----3----X----X----0----|



INTRO:

e|------------|----------|------0---|------------|

B|-------2----|----------|--------3-|---2---0----|

G|---------4--|-----2-0--|----2-----|---------2--|

D|-----4------|---0------|--0-------|-----2------|

A|---2--------|----------|----------|---2--------|

E|------------|-3--------|----------|------------|



e|------------|----------|-------------|

B|-------2----|----------|------0------|

G|---------4--|-----2-0--|--------0-2--|

D|-----4------|---0------|----2--------|

A|---2--------|----------|--0----------|

E|------------|-3--------|-------------|



D G D

Sabes, no pido nada mas, Que estar entre tus brazos

G Em

Y huir de todo el mal, Que a todo he renunciado

A

Por estar junto a ti

D G D

Sabes no dejo de pensar, Que estoy enamorado

G Em

Te quiero confesar, Que soy solo un esclavo

A

Que no sabe vivir sin ti



CORO

https://www.coveralia.com/acordes/sabes-reik.php
Bm G D A Bm

Cuando llegaste tu, Te metiste en mi ser

G D A

Encendiste la luz, Me llenaste de fe

Em G Em

Tanto tiempo busque, Pero al fin te encontre

D A

Tan perfecta, Como te imagine

Bm G D A Bm

Como aguja en un pajar, Te busque sin cesar

G D A

Como huella en el mar, Tan dificil de hallar

Em G Em

Tanto tiempo busque, Pero al fin te encontre

D A

Tan perfecta, Como te imagine, INTRO



D G D

Sabes te quiero confesar, Que te encuentro irresistible

G Em

No dejo de pensar, Que haria lo imposible

A

Por quedarme cerca de ti



CORO



e|------------|----------|-------------|

B|-------2----|----------|------0------|

G|---------4--|-----2-0--|--------0-2--|

D|-----4------|---0------|----2--------|

A|---2--------|----------|--0----------|

E|------------|-3--------|-------------|



D G A D

Sabes no pido nada mas, Que estar entre tus brazos.

Letra subida por: Anónimo

El acorde de Sabes de Reik es una versión de la canción original realizada por colaboradores/usuarios de Coveralia.

¿Has encontrado algún error en esta página? Envíanos tu corrección del acorde