música
Buscador

Acorde de Rush, Rush - Paula Abdul

Letra de Rush, Rush





Intro:



e|---4---2---|

B|---5---4---|

G|---4---4---|





This goes two times without chords, then two times with B chord

in background (or if you can with bass B), and then two times

with chord C#m in background (or if you can with bass C#).





(just intro)

...uuu, na, na, na, na, na, na,

uuu na, na, na...





(intro with B)

You're the whisper of a summer breeze

(intro with C#m)

You're the kiss that puts my soul at ease



What I'm saying is I'm in to you

E

Here's my story, and the story goes

C#m

You give love, you get love and more than heaven knows







You're gonna see

A

I'm gonna run, I'm gonna try



I'm gonna take this love right to ya

G#

All my heart, all the joy

A B

Oh baby, baby please





E

Rush, rush



Hurry, hurry lover come to me

C#m

Rush, rush

A

I wanna see, I wanna see ya get free with me

E

Rush, rush



I can feel it, I can feel you all through me

C#m

Rush, rush

A

Ooh what you do to me





E

And all I want from you is what you are



And even if you're right next to me

C#m

Its still too far away



If I'm not inside your arms

E

I get dramatic baby yes I know



But I need you, I want you, oh man I love you so

C#m

Ooh, ooh





https://www.coveralia.com/acordes/rush--rush-paula-abdul.php



You're gonna see

I'm gonna run, I'm gonna try

I'm gonna take this love right to ya

All my heart, all the joy

Oh baby, baby please





* chorus 2X *







A

When you kiss me up and down



Turn my senses all around

B C#m

Oh baby, oh baby

A

I don't know just how or why



But no one else has touched me

G# A B

So deep, so deep, so deep inside





SOLO (violin)



E C#m

e|------0-2-4--5-4-2-0---4--4-5--4-2-0---2-0------0------0-2-4--2-4-2-0-------|

B|---0-2----------------------------------2-2--0-2-2--0-2--------------2-2-0--|

G|----------------------------------------------------------------------------|

D|----------------------------------------------------------------------------|

A|----------------------------------------------------------------------------|

E|----------------------------------------------------------------------------|



E C#m A

e|---0-7--5-4-2--7-7-9-7--7-7-5--5-5-4--4-4-2--2------0---0-----0---0-2--0-2-4--2-4-5--4-5-5/7--|

B|----------------------------------------------2--0-2---2-2-0-2---2----------------------------|

G|----------------------------------------------------------------------------------------------|

D|----------------------------------------------------------------------------------------------|

A|----------------------------------------------------------------------------------------------|

E|----------------------------------------------------------------------------------------------|







You're gonna see

I'm gonna run, I'm gonna try

I'm gonna take this love right to ya

All my heart, all the joy

Oh baby, baby please





* chorus 2X *





Rush, rush

a na na, a na na, a na na na na

Rush, rush

a na na, a na na, a na na na na







Used chords:



EADGBe

E-------022100

C#m-----x46654

A-------x02220

B-------x24442

G#------466544





/ slide up





Letra subida por: Anónimo

Discos en los que aparece este acorde: Greatest Hits , , Greatest Hits: Straight Up! , 10 Great Songs , Icon

El acorde de Rush, Rush de Paula Abdul es una versión de la canción original realizada por colaboradores/usuarios de Coveralia.

¿Has encontrado algún error en esta página? Envíanos tu corrección del acorde