música
Buscador

Acorde de Revolución Nacional - Malon

Letra de Revolución Nacional

Intro.



e|--------------------------------|

B|--------------------------------|

G|--------------------------------|X8

D|--7-----7-----7-----------------|

A|--5--7--5--7--5--5--5-5-5-------|

E|-----5-----5-----3--3-3-3-------|





Canto. Riff 1



e|-------------------------------------------------------------|

B|-------------------------------------------------------------|

G|--------2~~--------------------------------------------------|

D|--------0~~---------------------------8~~--------------------|

A|-7-7-7-------------------------7-7-7--6~~--------------------|

E|-5-5-5-------------------------5-5-5-------------------------|



Encontraré mi camino... Ya no pretendo parar



Canto riff 2



e|--------------------------------------------------------------|

e|--------------------------------------------------------------| En esta parte realiza un

B|--------------------------------------------------------------| arreglo complicado. No sé lo

G|--------------------------------------------------------------| lo que hace. Escuchen el tema

D|-----------------------------7--5--7--------------------------| y se van a dar cuenta.

A|--7-7-7----7-7-7---7-7-7-----5--3--5----7-7-7---7-7-7--7-7-7--|

E|--5-5-5----5-5-5---5-5-5----------------5-5-5---5-5-5--5-5-5--|



Por más que me aprieten el cuello Por más que me quieran callar



Estribillo. (Intro.)



https://www.coveralia.com/acordes/revolucion-nacional-malon.php

e|---------------------------------------------------------------|

B|---------------------------------------------------------------|

G|---------------------------------------------------------------|

D|--7---------7------7-------------7-------------7------7--5-----|

A|--5----7----5---7--5--5--5-5-5---5----7--------5---7--5--5-----|

E|-------5--------5-----3--3-3-3--------5------------5-----3-----|



Revolución Nacional No pierdas la identidad



Letra:

Encontraré mi camino, ya no pretendo parar.

No hago caso a la ciencia de los que quieren mandar.

No me revuelco en su salsa, su crítica no me hace mal.

Enfrentaré mi destino, ya no me van a voltear.

Por más que me aprieten el cuello.

Por más que me quieran callar.

Ya no detendré mi camino.

Ya nunca me van a bajar.

Revolución nacional, no pierdas la identidad.

Revolución nacional, no pierdas la identidad.

Pude quedarme sentado sólo mirando de atrás

pero mi sangre no es barro y me mandé a pelear.

Historias de vida y trabajo que no he de perder.

Seré lo que deba ser o nada seré.

Por más, por más que me aprieten los huevos,

por más, por más que me quieran matar.

Ya no, ya no detendré me camino.

Ya nunca, ya nunca me van a bajar.

Revolución nacional, no pierdas la identidad.

Revolución nacional, no pierdas la identidad.

Revolución nacional, por más.

No pierdas la identidad, ya no.

No pierdas la identidad, ya no.

No pierdas la identidad.

Letra subida por: Anónimo

Discos en los que aparece este acorde: Resistencia Viva

El acorde de Revolución Nacional de Malon es una versión de la canción original realizada por colaboradores/usuarios de Coveralia.

¿Has encontrado algún error en esta página? Envíanos tu corrección del acorde