Quantcast
música
Buscador

Acorde de Quédate - Nek

Letra de Quédate



CLAVE: G

INTRO: G C9 Am7 D x 2



G C9 Am7 D G

||-------3----- ----3------- -----3-------- -----3------2--- ------3---------------

||-------3----- ----3------- -----3-------- -----3------3--- ------3---------------

||------------- ------------- -------------- ---2--------2--- -----------------------

||------------- --2--------- --2---------- ----------------- -----------------------

||-----2------- ----3------- -------------- ----------------- ----2------------------

||-------3----- ------------ -------------- ------------------ ------3---------------







G C9 Am7

Vuelvo a buscarte

D G C9 Am7 D

vuelvo a por ti

D G C9

dejame intentar

Am7 D G C9 Am7 D

rescatar lo que perdi.





(Los mismos acordes para el siguiente verso)

Si no es bastante



decir que vengo a pedir perdon



di que puedo hacer para ocupar

G C9 Am7 D

otra vez tu corazon.



Em D

Mi amor, por ti

G C

he olvidado todo lo que fui

Em D

y estoy aqui

G

para darte mas

C9

y volverme a atar

Am7 D

a los lazos de tu cuerpo

G

aunque me aleje

https://www.coveralia.com/acordes/quedate-nek.php

C9

nunca me olvide

Am7 D

del sabor de tu piel

Em Bm7 C G

eres mas de los que pude soñar, y si tevas

Am7 D

se que voy a enloquecer

G C9 Am7 D (INTRO)

quedate.



***** (La cancion sigue el mismo patron anterior)



Abre los brazos

y que vuelva ar s el reloj

dejate llevar

llename lo besos la soledad



Mi amor, sin ti

cada madrugada es como un sue¤o gris

estoy aqui

para darte m s

y volverme a atar

a los lazos de tu cuerpo

ven y ense¤ame......

G

...quedateeeeee



------ Antes del Solo -----

G

m--8------7---------------------7-----------------

b-----8------8-----10--------8----8----10--------

g--------7------7----------7---------7-------------

d------------------------9--------------------------

a----------------------------------------------------

m---------------------------------------------------



Solo Guitarra 1 (asi lo toco yo) G

m-------------5------------------------------------------------------5------7-----8------8/10---10--8--7--8--7-----------------|

b---7/8--7-------8--5--------------------------------------7/8--7------7-----7-----7-----------------------------10------------|

g------------------------7---5----------- 5/-7--7-7--------------------------------------------------------------------4--2--0-|

d--------------------------------9--7--9---------------------------------------------------------------------------------------|

a------------------------------------------------------------------------------------------------------------------------------|

m------------------------------------------------------------------------------------------------------------------------------|



Letra subida por: Anónimo

El acorde de Quédate de Nek es una versión de la canción original realizada por colaboradores/usuarios de Coveralia.

¿Has encontrado algún error en esta página? Envíanos tu corrección del acorde