Quantcast
música
Buscador

Acorde de Prendimi Adesso - Sonohra

Letra de Prendimi Adesso

IMPORTANTE!!! afinar las cuerdas de la guitarra medio tono mas abajo

//= menor duracion de acordes

Intro

Riff x2 y luego A5 D5//G5x4



Verso

Todo sobre los acordes A5 F5 G5//D5

Guardami, prendimi qui

Con le labbra sfiorami

Stringimi di più

Poi mordimi, ovunque vuoi

Io nei respiri tuoi

Già ti appartengo



Riffx2



A5 E5

Vai e non pensare

G5 D5 A5

Libera il tuo corpo su di me

E5 F5 G5

Non darti un limite

D5//D5//D5//G5//D5//G5

Prova a sorprendermi

A5 E5

Vai e fammi male

G5 D5 A5

Sento il tuo profumo su di me

E5 F5

In ogni mio brivido

D5//D5//D5//G5//D5G5

Prendimi adesso E poi vivimi



Puente



A5 G5//D5x2



---------------------------

---------------------------

-7b-9--7-5-7--7b-7-5-------

---------------------7-5-7-

---------------------------

--------------------------- x2



Verso 2

Usa acordes A5 F5 G5//D5 atraves de todo el verso



Sentimi, dentro di te

La tua pelle scivola

Sulle mie mani ormai

Balla così, sopra di me

In questa musica

Tu tieni il tempo



Riffx2



https://www.coveralia.com/acordes/prendimi-adesso-sonohra.php

A5 E5

Vai e non pensare

G5 D5 A5

Libera il tuo corpo su di me

E5 F5 G5

Non darti un limite

D5D5D5//G5//D5//G5

Prova a sorprendermi

A5 E5

Vai e fammi male

G5 D5 A5

Sento il tuo profumo su di me

E5 F5

In ogni mio brivido

D5//D5//D5//G5//D5G5

Prendimi adesso E poi vivimi



Solo (no lo saque todavia)





A5 E5

Vai e non pensare

G5 D5 A5

Libera il tuo corpo su di me

E5 F5 G5

Non darti un limite

D5D5D5//G5//D5//G5

Prova a sorprendermi

A5 E5

Vai e fammi male

G5 D5 A5

Sento il tuo profumo su di me

E5 F5

In ogni mio brivido

D5//D5//D5//G5//D5G5

Prendimi adesso E poi vivimi





A5 G5//D5x2

---------------------------

---------------------------

-7b-9--7-5-7--7b-7-5-------

---------------------7-5-7-

---------------------------

--------------------------- xrepetir hasta el final



//////////////////////////////////////////////////////////////////

Riff

-----------------------------------------------------------------

-----------------------------------------------------------------

-----------------------------------------------------------------

-----7-5-7-7-4-5-4-5-4-------------------------------------------

-----7-7-7-7-5-5-5-5-5-------------------------------------------

-5-5-5-5-5-5-3-3-3-3-3-------------------------------------------

Letra subida por: Anónimo

Discos en los que aparece este acorde: Meta

El acorde de Prendimi Adesso de Sonohra es una versión de la canción original realizada por colaboradores/usuarios de Coveralia.

¿Has encontrado algún error en esta página? Envíanos tu corrección del acorde