música
Buscador

Acorde de Perderte De Nuevo - Camila

Letra de Perderte De Nuevo

E--------------- 

A--5-7----------

D------5-7------

G---------------

B---------------

e---------------



G D

ya habia desilusion, dolor y resignación

Em Am D

el tiempo supo esperar y asi la deje de amar

G D

no habia mas que decir, habia llegado el fin

Em Am D

hacia dos años ya, que no me la encontraba





precoro:



C D

estaba aprendiendo como vivir

G Bm Em

ya de ti me olvidaba cuando te vi

C D

con la mirada desesperada





G D

y fue tan fuerte volver a verte

Em D

sufri tanto tiempo por ti

C Bm Am

https://www.coveralia.com/acordes/perderte-de-nuevo-camila.php

basto miratte, recuperarte y saber

D

que te hirias sin mi



G D

y fue tan fuerte volver a quererte

Em D C

volver a creer en los dos

Am Bm

basto mirarte, volver amarte

Am D G

parar perderte denuevo amooor







G D

senti tanta confusión, al verte tan fria amor

Em Am D

fue que comprendi que tu no eras para mi





estaba..aprendiendo......



final:

E----------------------------3---------------

A-3------2------0------------2---------------

D----------------------0-----0---------------

G---0------0------0-----0----0---------------

B----3------3------3-----3---3---------------

e-----3------3------3--------3---------------

Letra subida por: Anónimo

Discos en los que aparece este acorde: Todo Cambio , Todo Cambio (Edicion Especial)

El acorde de Perderte De Nuevo de Camila es una versión de la canción original realizada por colaboradores/usuarios de Coveralia.

¿Has encontrado algún error en esta página? Envíanos tu corrección del acorde