Quantcast
música
Buscador

Acorde de Penas Con Rumba - Estopa

Letra de Penas Con Rumba

Este es el punteo del principio. 



e---------------------------------------------------------------|

B---------------------------------------------------------------|

G---------------------------------------------------------------|

D---------------------------------------------------------------| (x2)

A-2-2-4-5-4-7-5-4-2-4-0-0-2-4-2-5-4-2-0-2-----0-2-0-4-2-0--0----|

E-----------------------------------------3-3------------3---2--|





Bm

Que oscuro tienes el pelo

A

nubla todas las estrellas

Em

se ha detenido mi tiempo

F#

se ha acabao mi primavera

Bm

Bebo tu dulce veneno

A

lo pruebo y provoca la lluvia

Em

ciego de tu sentimiento

F#

me ahogo en el mar de tus dudas



**ESTRIBILLO**





Bm

Porque las penas con rumba

A

son menos penas morena

Em

mi corazón se derrumba

F#

que es un castillo de arena.

Bm

Yo ya no vivo en tu alfombra

A

yo vivo donde tu quieras

Em

confundeme con tu sombra

F#

quiero quemarme en tu hoguera.





Bm

No es que no te eche de menos

A

es que se me encoge el alma

Em

cuando no estas no te veo

F#

se me pudre la mirada.

Bm

https://www.coveralia.com/acordes/penas-con-rumba-estopa.php

Y pienso que soy un enfermo

A

necesito medicina

Em

un par de dosis de besos

F#

antes de cada comida.



**ESTRIBILLO**



Bm

Porque las penas con rumba

A

son menos penas morena

Em

mi corazón se derrumba

F#

que es un castillo de arena.

Bm

Yo ya no vivo en tu alfombra

A

vivo donde tu quieras

Em

confundeme con tu sombra

F#

quiero quemarme en tu hoguera.





e---------------------------------------------------------------|

B---------------------------------------------------------------|

G---------------------------------------------------------------|

D---------------------------------------------------------------| (x2)

A-2-2-4-5-4-7-5-4-2-4-0-0-2-4-2-5-4-2-0-2-----0-2-0-4-2-0--0----|

E-----------------------------------------3-3------------3---2--|





**ESTRIBILLO**



Bm

Porque las penas con rumba

A

son menos penas morena

Em

mi corazón se derrumba

F#

que es un castillo de arena.

Bm

Yo ya no vivo en tu alfombra

A

vivo donde tu quieras

Em

confundeme con tu sombra

F#

quiero quemarme en tu hoguera. (x2)



Letra subida por: Anónimo

Discos en los que aparece este acorde: ¿La Calle Es Tuya?

El acorde de Penas Con Rumba de Estopa es una versión de la canción original realizada por colaboradores/usuarios de Coveralia.

¿Has encontrado algún error en esta página? Envíanos tu corrección del acorde