Quantcast
música
Buscador

Acorde de Party - Demi Lovato

Letra de Party

e|----------------------------------------------5h7p5-----| 

B|----------------------------------------------------8p5-|

G|--------------------------------------------------------|

D|-----2-0-----0-----0------------2-0-----0---------------|

A|---2------2-----2-----1-0-----2------2-----2------------|

E|-0------------------------3-0---------------------------|



e|-----------------------------------------2-2------|

B|-----------------------------------------3-3--2-2-|

G|-----------------------------------------2-2--2-2-|

D|-----2-0-----0-----0------------2-0------0-0--2-2-|

A|---2------2-----2-----1-0-----2------2--------0-0-|

E|-0------------------------3-0---------------------|



Verse 1:

I saw you looking over

Now I see you moving this way

Pushing through the crowd

Like you got something

to say yeah

But you couldn’t walk

Cause the music’s

taking over your feet

I could tell by your toes

That you’re rocking

to this beat



C

You gotta dance

til you ache

‘Til you drop

til you break

D

Free your soul let

me see you shake

Em

One by one we’re

stealing the stage

Here we come so

get out of our way



Chorus 1:

Em

It won’t be long

D

til the summer is gone

G

Get your party on

A B

So we’ll sing along

Em

Hold on tight

D

it’s a crazy night

G

Get your party on

A B

So we’ll scream

it out loud YEAH



Verse 2:

I know your type

And all the hype is going

straight to your head

And everybody’s stopping

what their doing

Cause your face is

turning red yeah

Gotta learn how to

move to the grove

Give in, or get out

Put your hands in the air

https://www.coveralia.com/acordes/party-demi-lovato.php

Stand up in your

chair and shout



C

You’re all dolled up

with nowhere to go

D

You wanna get out

and put on a show

Em

There’s nothing wrong

with staying home

As long as you’ve

got your radio



Chorus 2:

Em

It won’t be long

D

til the summer is gone

G

Get your party on

A B

So we’ll sing along

Em

Hold on tight

D

it’s a crazy night

G

Get your party on

A B

So we’ll scream it

Em

Don’t wanna wait

D

and don’t ya be late

G

Get your party on

A B

So we’ll sing along

Em

Hold on tight

D

it’s a crazy night

G

Get your party on

A B

So we’ll scream

it out loud



(Repeat Intro twice with Lead Solo)



Come on!

Tell you to

take me!

Bring it home

for me baby!



Bridge:

D A

The little things that you do

D A

From across the room

A D

I see you’re sending me clues

Their in the way you make me move



(Repeat Chorus 2)





Letra subida por: Anónimo

El acorde de Party de Demi Lovato es una versión de la canción original realizada por colaboradores/usuarios de Coveralia.

¿Has encontrado algún error en esta página? Envíanos tu corrección del acorde