música
Buscador

Acorde de Our Lips Are Sealed - Hilary Duff

Letra de Our Lips Are Sealed

INTRO :  G#    C   C# 



G#

Can you hear them?

F#

They talk about us.



C#

Telling lies

Well, that's no surprise.



G#

Can you see them?

F#

See right through them.



C#

They have no shield

No Secrets to reveal.



Chorus

B F# C#

It doesn't matter what they say.

C

In the jealous games people play.

C#

Hey, Hey, Hey.

G#

Our Lips Are Sealed.





G#

There's a weapon.

F#

Which we must use.



C#

In our defense silence.



G#

Spreading Rumors

F#

So far from true.



C#

Dragged up from the underworld.

Just like some precious pearl.



Back to Chorus



B F# C#

Pay no mind to what they say

C C#

It doesn't matter anyway.

G#

Our Lips Are Sealed.



G#

Hush my darlin'.

https://www.coveralia.com/acordes/our-lips-are-sealed-hilary-duff.php

C C#

Don't you cry.

G#

Cryin' angels.

C C#

Forget their lies.



G#

Can you hear them?

F#

They talk about us.



C#

Telling lies

Well, that's no surprise.



G#

Can you see them?

F#

See right through them.



C#

They have no shield

No Secrets to reveal.





B F# C#

Pay no mind to what they say.

C C#

It doesn't matter anyway. Hey, Hey, Hey.

G# C#

Our Lips Are Sealed {2x}

G#

Our Lips Are Sealed





play this in some parts of the song...

Riff 1



e|---7--6-----7--6---------7--6-----7--6---------|--C-J

B|---------7--------7--7---------7--------7--7---|--A-A

G|--------------------------------------------------|--R-I

D|--------------------------------------------------|--L-R

A|--------------------------------------------------|--O

E|--------------------------------------------------|--S





Riff 2



e|----------------|--C-J

B|----------------|--A-A

G|----------------|--R-I

D|----------------|--L-R

A|------------4---|--O

E|--2--4--2-------|--S





Letra subida por: Anónimo

El acorde de Our Lips Are Sealed de Hilary Duff es una versión de la canción original realizada por colaboradores/usuarios de Coveralia.

¿Has encontrado algún error en esta página? Envíanos tu corrección del acorde