música
Buscador

Acorde de On My Mind - Donavon Frankenreiter

Letra de On My Mind

intro: A7+, Bm7, A7+, Bm7 





riff:1

(D7+) (Dm7) (A)

E|-5--5-X---5--5-X---5--5-X---5h7p5------------------

B|-7--7-X---6--6-X---5--5-X---------5h7p5------------

G|-7--7-X---5--5-X---6--6-X---------------4h6p4------

D|-7--7-X---7--7-X---7--7-X---------------------7~---

A|-5--5-X---5--5-X---7--7-X--------------------------

E|----------5--5-X---5--5-X--------------------------

riff:2

E|-5--5-X---5--5-X---5--5-X--------------------------

B|-7--7-X---6--6-X---5--5-X-------------------10~----

G|-7--7-X---5--5-X---6--6-X--------------9h11--------

D|-7--7-X---7--7-X---7--7-X-------7-9s11-------------

A|-5--5-X---5--5-X---7--7-X---7s9--------------------

E|----------5--5-X---5--5-X--------------------------

riff:3

E|-5--5-X---5--5-X---5--5-X--------------------------

B|-7--7-X---6--6-X---5--5-X--------------------------

G|-7--7-X---5--5-X---6--6-X--------------------------

D|-7--7-X---7--7-X---7--7-X-------7-9s11s9-7-7~------

A|-5--5-X---5--5-X---7--7-X---7s9--------------------

E|----------5--5-X---5--5-X--------------------------



intro: A7+, Bm7, A7+, Bm7

(listen to song for the strum pattern.)



verse 1:



A7+ Bm7

Ahh baby, let's get down tonight

everytime we do it just feels so right.

https://www.coveralia.com/acordes/on-my-mind-donavon-frankenreiter.php

Let's go sit underneath that willow tree

Ahh baby, just you and me.



chorus:



(riff:1)

Even though i can see you all the time

(riff:2)

i gotta let ya know, your on my mind.

(riff:1)

Even though i can see you all the time

(riff:3)

i gotta let ya know, your on my mind.



verse 2:



Take those clouds, and make a sunny day.

I love to watch you do it just your own way.

Let's go sit underneath that moonlight.

Ahh baby girl you know i'll hold you tight.



(chorus)



A G Bm7

On my mind, on my mind again.

Said your, on my, on my mind again.

your, on my mind, on my mind again.



C#m7 Bm7

Well I, gotta let you know, that i'll never let you, go...





Letra subida por: Anónimo

Discos en los que aparece este acorde: Donavon Frankenreiter , The Abbey Road Sessions (Dvd) , Revisited

El acorde de On My Mind de Donavon Frankenreiter es una versión de la canción original realizada por colaboradores/usuarios de Coveralia.

¿Has encontrado algún error en esta página? Envíanos tu corrección del acorde