música
Buscador

Acorde de Octavo Sueño - Octavia



NOTACION:



S.A. : SIN ACORDE



ACORDES:



Bm7add11 A5 B5 E Dsus2 Asus2

e|---0---------------0-----0-------0----|

B|---3---------------0-----3-------0----|

G|---2---------------1-----2-------2----|

D|---4------7----9---2-----0-------2----|

A|---2------7----9---2-------------0----|

E|----------5----7---0------------------|



INTRO:



Bm7add11 E



Bm7add11 E

Más allá del placer Más allá del dolor

E

Es donde quiero llevarte

Bm7add11 E

Donde el suelo es de sal Y el cielo es el mar

E

Que invita a navegar

Bm7add11 E

Ven a mí Es allí que te llevaré

E

Ven a mí Que sin ti no lo puedo hacer





Dsus2 Asus2

Bésame y verás

E

cómo te consume el fuego

Dsus2 Asus2

Tócame y verás

E

como te domina el viento

Dsus2 Asus2

Sujétate bien

E

subiremos hasta el cielo

Dsus2 Asus2

Y en una explosión

E S.A.

fundiremos nuestras almas en un solo cuerpo





Bm7add11 E

Más allá del estrés más allá del furor

E

de este laberinto

Bm7add11 E

Donde no hay temor donde todo es calor

E

Es mi paraíso

https://www.coveralia.com/acordes/octavo-sueno-octavia.php

Bm7add11 E

Ven a mí ven con buena o con mala fe

E

Cree en mí que sin ti no lo lograré.





Dsus2 Asus2

Bésame y verás

E

cómo te consume el fuego

Dsus2 Asus2

Tócame y sabras

E

como te domina el viento

Dsus2 Asus2

Y en una explosión

E S.A.

fundiremos nuestras almas en un solo cuerpo





INTERMEDIO:

ESTA ES LA PARTE DE ACOMPAÑAMIENTO DE LA GUITARRA





\

B5 A5 E |

e|-------|-------|---0---------------------| |

B|-------|-------|---0---------------------| |

G|-------|-------|---1---------------------| |> *4

D|---9---|---7---|---2---------------------| |

A|---9---|---7---|---2---4--4--4--5--5--7--| |

E|---7---|---5---|---0---0--2--0--3--0--5--| |

|

/



Dsus2 Asus2

Bésame y verás

E

cómo te consume el fuego

Dsus2 Asus2

Tócame y verás

E

como te domina el viento

Dsus2 Asus2

Sujétate bien

E

subiremos hasta el cielo

Dsus2 Asus2

Y en una explosión

E

fundiremos nuestras almas en un solo cuerpo

Dsus2 Asus2

Y en una explosión

E

fundiremos nuestras almas en un solo cuerpo







Letra subida por: Anónimo

Discos en los que aparece este acorde: Ciclos

El acorde de Octavo Sueño de Octavia es una versión de la canción original realizada por colaboradores/usuarios de Coveralia.

¿Has encontrado algún error en esta página? Envíanos tu corrección del acorde