música
Buscador

Acorde de Objetos Pedidos (Versión Acústica) - Rulo Y La Contrabanda

Letra de Objetos Pedidos (Versión Acústica)

INTRO: LA - RE - DO#m    LA - SIm - DO#m     MI  (x2)





La… [P.M.] Fa#m [P.M.] Mi [P.M.] Re [P.M.]

Tú me das calor, yo te doy qué hacer, y al final todo sale bien.



La… [P.M.] Fa#m [P.M.] Mi [P.M.] Re [P.M.]

Es amor a lo bestia de diez a seis, es la guerra de dos a diez.





(Riff 1)

FA#m RE LA FA#m RE MI

E-2-----------------5-----------5----------2------------5------------7--

B-2-----------------7-----------5----------2------------7------------9--

G-2----------2------7-----------6----------2--------2---7------------9--

D-4------4----------7-----------7-------7--4-----4------7------------9--

A-4-----------------5-----------7---7------4------------5------------7--

E-2-----------------5-----------2---------------------------------------

En objetos perdidos te encontré y acabé perdido yo también.





LA - RE - DO#m

Na na na

LA - SIm - DO#m

Na na na

MI

Na na na (x2)





La… [P.M.] Fa#m [P.M.] Mi [P.M.] Re [P.M.]

Tú me harás volar, yo te haré caer y otros días será al revés.



La… [P.M.] Fa#m [P.M.] Mi [P.M.] Re [P.M.]

Es pasar en segundos de cero a cien y chocar contra una pared.





(Riff 1)

Cada noche termino colgado en ti. Todas las mañanas pienso en huir.





FA#m RE

Tú dices que tal vez mañana,

LA MI

yo digo que por qué no ayer.

FA#m RE

Te inventas tu mejor cohartada

LA MI

para maquillar tu falta de interés.





RE (P.M.) RE

Tú dices que no sientes nada

FA#m (P.M.) FA#m

las noches que yo estoy contigo.

RE (P.M.) RE

Y en medio de la madrugada

MI (P.M.) MI

https://www.coveralia.com/acordes/objetos-pedidos--version-acustica--rulo-y-la-contrabanda.php

amanezco solo entre sudores fríos.





SOLO:

RE (P.M.) FA#m (P.M.)

E--------------------------------------------------------

B--------------------------------------------------------

G-13-14-13----------------------13-14-13---------13-14---

D---------16-14-16--18-16--14-12---------16-14-16--------

A--------------------------------------------------------

E--------------------------------------------------------



RE (P.M.) MI (P.M)

E----------------------------------------------------------------

B----------------------------------------------------------------

G-13-14-13---------13-14--13-14-13-14--14-16--14-16-14-16-14-16v-

D---------16-14-16-----------------------------------------------

A----------------------------------------------------------------

E----------------------------------------------------------------







LA

Na na na

FA#m

Na na na

MI

Na na na(x2)





La… [P.M.] Fa#m [P.M.] Mi [P.M.] Re

Tú me das calor, yo te doy qué hacer, y al final todo sale bien.







FA#m RE

Tú dices que tal vez mañana,

LA MI

yo digo que por qué no ayer.

FA#m RE

Te inventas tu mejor cohartada

LA MI

para maquillar tu falta de interés.(x2)





FINAL: LA - RE - DO#m LA - SIm - DO#m MI (x2)

LA - SIm - RE - MI - FA#m (*)



FA#m (*)

E-9--

B-10-

G-11-

D-11-

A-9--

E----

Letra subida por: Anónimo

Discos en los que aparece este acorde: Mas Del Doble De Tu Mitad

El acorde de Objetos Pedidos (Versión Acústica) de Rulo Y La Contrabanda es una versión de la canción original realizada por colaboradores/usuarios de Coveralia.

¿Has encontrado algún error en esta página? Envíanos tu corrección del acorde