música
Buscador

Acorde de No - Shakira

Letra de No

INTRO



Bm G A Em

E -------------------2-0---0----------------------

B -----------------------3-0----------------------

G --------2--------------------------------------- x 2 veces

D --4-4-4---4-0----------------2-2-2-2------------

A --2-----------2--2-----------0--------0-2-------

E ----------------------------------------0--3-2—-





ARPEGIOS





Bm1

E ----------------

B ----------------

G -----------4----

D --------4----4--

A --2-2-2---------

E ----------------



A1

E ----------------

B ----------------

G -----------2----

D --------2----2--

A --0-0-0---------

E ----------------



D1

E ----------------

B ----------------

G --------2-------

D ------0----0----

A --0-0--------0--

E ----------------



Em1

E ----------------

B ----------------

G -----------0----

D --------2----2--

A ----------------

E --0-0-0---------



G1

E ----------------

B ----------------

G -----------0----

D --------0----0--

A ----------------

E --3-3-3---------



A2

E ----------------

B ----------------

G -----------2----

D --------0----0--

A ------4---------

E --5-5-----------







VERSO 1



Bm1 A1 D1 Em1

No, no intentes disculparte, no juegues a insistir



G1 D1 A2 – A2

Las excusas ya existían antes de ti



Bm1 A1 D1 Em1

No, no me mires como antes, no hables en plural



G1 D1 A2 – A2

La retórica es tu arma más letal



G A D Bm G A

E ----------------------0--5-----3--2---------------------------------0--

B ----------3--2-----3-------3---------3-------3--------0--0--2-----2----

G --4-----6------2-------------2---------4---4--------0-----------2------

D ----5------------2-------0---------------4--------0-----------2--------

A ------5------0-----0-----------------2----------------------0----------

E --3---------------------------------------------3----------------------

Voy a pe-dir---te que no vuelvas más siento que me dueles toda-



Bm

E ------------------------

B --------3-2--------3-2--

G --4---4------4---4------

D ----4----------4--------

A --2----------2----------

E ------------------------

vía aquí Adentro



G A D Bm G A Bm

E ----------------------0--5-----3--2-----------------------------------2--

B ----------3--2-----3-------3---------3-------3--------0--0--2-----2---3--

G --4-----6------2-------------2---------4---4--------0-----------2-----4--

D ----5------------2-------0---------------4--------0-----------2-------4--

A ------5------0-----0-----------------2----------------------0---------2--

E --3---------------------------------------------3---------------------2—

Y que a tu edad sepas bien lo que es romperle el corazón a alguien





E --------7-2------

B ------3-----3-0--

G ----4------------

D -----------------

A --2--------------

E -----------------

así





CORO ('arpegiado de quinta o sexta hasta la primera cuerda')



A Em G

No se puede vivir con tanto veneno



A

La esperanza que me da tu amor



Em G

No me la dio mas nadie, te juro no miento.



A Em G

No se puede vivir con tanto veneno,



A Em

No se puede dedicar al alma, a acumular intentos



G

Pesa más la rabia que el cemento.





INTRO



Bm G A Em

E -------------------2-0---0----------------------

B -----------------------3-0----------------------

G --------2--------------------------------------- x 2 veces

D --4-4-4---4-0----------------2-2-2-2------------

A --2-----------2---2----------0--------0-2-------

E ----------------------------------------0--3-2—-

https://www.coveralia.com/acordes/no-shakira.php







VERSO 2



Bm1 A1

Espero, que no esperes que te espere



D1 Em1

Después de mis veintiséis.



G1 D1 A2 – A2

La paciencia se me ha ido hasta los pies.



Bm1 A1 D1 Em1

Y voy deshojando margaritas y mirando sin mirar



G1 D1 A2 – A2

Para ver si así te irritas y te vas.





G A D Bm G A

E ----------------------0--5-----3--2---------------------------------0--

B ----------3--2-----3-------3---------3-------3--------0--0--2-----2----

G --4-----6------2-------------2---------4---4--------0-----------2------

D ----5------------2-------0---------------4--------0-----------2--------

A ------5------0-----0-----------------2----------------------0----------

E --3---------------------------------------------3----------------------

Voy a pe-dir--te que no vuelvas más siento que me dueles toda-



Bm

E ------------------------

B --------3-2--------3-2--

G --4---4------4---4------

D ----4----------4--------

A --2----------2----------

E ------------------------

vía aquí Adentro



G A D Bm G A Bm

E ----------------------0--5-----3--2-----------------------------------2--

B ----------3--2-----3-------3---------3-------3--------0--0--2-----2---3--

G --4-----6------2-------------2---------4---4--------0-----------2-----4--

D ----5------------2-------0---------------4--------0-----------2-------4--

A ------5------0-----0-----------------2----------------------0---------2--

E --3---------------------------------------------3---------------------2--

Y que a tu edad sepas bien lo que es romperle el corazón a alguien





E --------7-2------

B ------3-----3-0--

G ----4------------

D -----------------

A --2--------------

E -----------------

así





CORO (rasgueado)



A Em G

No se puede vivir con tanto veneno



A

La esperanza que me dio tu amor



Em G

No me la dio mas nadie, te juro no miento.



A Em G

No se puede morir con tanto veneno,



A Em

No se puede dedicar al alma, a acumular intentos



G

Pesa más la rabia que el cemento.







INTRO



Bm G D Em

E -------------------2-0---0----------------------

B -----------------------3-0----------------------

G --------2--------------------------------------- x 2 veces

D --4-4-4---4-0----------------2-2-2-2------------

A --2-----------2---2----------0--------0-2-------

E ----------------------------------------0--3-2—-







PUENTE





Riff



A G A G

E ----------------------------0-----0------2-5-2--

B ----2----2------3----3----2-----2------3--------

G --2----2------4----4---------------------------- x 2 veces

D ------------------------------------------------

A ------------------------------------------------

E ------------------------------------------------



A G A - G

No se puede vivir con tanto veneno



A G A G

E ----------------------------0-----0------2-5-2--

B ----2----2------3----3----2-----2------3--------

G --2----2------4----4----------------------------

D ------------------------------------------------

A ------------------------------------------------

E ------------------------------------------------



A G A - G

No se puede vivir con tanto veneno



A G A G

E ----------------------------0-----0------2-5-2--

B ----2----2------3----3----2-----2------3--------

G --2----2------4----4----------------------------

D ------------------------------------------------

A ------------------------------------------------

E ------------------------------------------------



A - G

No...



A - G

No...



A G A G

E ----------------------------0-----0------2-5-2--

B ----2----2------3----3----2-----2------3--------

G --2----2------4----4----------------------------

D ------------------------------------------------

A ------------------------------------------------

E ------------------------------------------------



A

Nooo.

Discos en los que aparece este acorde: Fijacion Oral Volumen 1 , No (Cd Single) , Tour Fijacion Oral

El acorde de No de Shakira es una versión de la canción original realizada por colaboradores/usuarios de Coveralia.

¿Has encontrado algún error en esta página? Envíanos tu corrección del acorde