música
Buscador

Acorde de No Digas Lo Siento - Don Tetto

Letra de No Digas Lo Siento

Intro:



F# F#sus

E|-----------------------------------------------------------------|

B|-----------------------------------------------------------------|

G|-----------3-----------------------------------------------------|

D|-4-4-4-3-4------4-4-4-4-4s11-11-11-11s4-4-4-4-1----4-4-4-4-3-3-3-|

A|-----------------------------------------------------------------|

E|-----------------------------------------------------------------|



F#

No me digas que ahora quieres regresar

F#sus

Y juras que te arrepientes que puedes cambiar

F#

Yo te busque eh eh eh

F#sus

Y sonriendo dijiste no voy a volver



No me digas que todo va a ser como ayer

Cuando prometes no cumples te conozco bien

No te sorprendas si no entiendes la situación

Es mejor que te acostumbres se pondrá peor



B5 C#5

Yo te daré la solución

Bb5 F#sus

Es hora de decir adiós

B5 C#5

Para que nadie salga herido



F#

No digas lo siento

Cuando los dos sabemos

B5

Solo estas mintiendo

Engañando al corazón



F#

Nos dolerá por momentos

B5

No digas lo siento

F#

Así estaremos mejor



F#

No pretendas que todo vuelva a ser igual

F#sus

No soy el mismo de antes lo vas a notar

F#

No te ilusiones pensando en lo que pudo ser

F#sus

El tiempo lo cura todo vamos a estar bien



B5 C#5

Yo te daré la solución

Bb5 F#sus

https://www.coveralia.com/acordes/no-digas-lo-siento-don-tetto.php

Es hora de decir adiós

B5 C#5

Para que nadie salga herido

F#

No digas lo siento

Cuando los dos sabemos

B5

Solo estas mintiendo

Engañando al corazón

F#

Nos dolerá por momentos

B5

No digas lo siento

F#

Así estaremos mejor



Solo:

E|-------14--13----------------------------------------------------|

B|-11-14---------11----------11-14-11-14s16-14---------------------|

G|------------------------11-------------------11----11h13-11-9----|

D|---------------------13------------------------------------------|

A|-----------------------------------------------------------------|

E|-----------------------------------------------------------------|



D#5 C#5

Y así creamos que podemos arreglarlo uo uo

B5 C#5

Nos damos cuenta que

F#5(apagado)



Las palabras fueron en vanooooooooo



No digas lo siento

Cuando los dos sabemos

Solo estas mintiendo

Engañando al corazón



F#

Nos dolerá por momentos

B5

No digas lo siento

F#

Así estaremos mejoooooooor



F#

No digas lo siento

B5

No digas lo siento (Asi estaremos mejor)

F#

No digas lo siento

B5

No digas lo siento (Asi estaremos mejor)



Intro...



Asi estaremos mejor

El acorde de No Digas Lo Siento de Don Tetto es una versión de la canción original realizada por colaboradores/usuarios de Coveralia.

¿Has encontrado algún error en esta página? Envíanos tu corrección del acorde