música
Buscador

Acorde de Nido De Almas - Malon

Letra de Nido De Almas



Afinación: Re Sol Do Fa La Re



Intro:

|------------------------|

|------------------------|

|------------------------| x8

|------4/5----4/5-2-4-5--|

|--222-4/5-22-4/5-2-4-5--|

|--000-2/3-00-2/3-0-2-3--|

PM ... ..



|------------------------------------------------|

|------------------------------------------------|

|------------------------------------------------|

|-----4/5-----4/5-----4/5----4/5-----4/5-----4/5-|

|-222-4/5-2-2-4/5-2-2-4/5-22-4/5-2-2-4/5-2-2-4/5-|

|-000-2/3-0-0-2/3-0-0-2/3-00-2/3-0-0-2/3-0-0-2/3-|

PM... . . . . .. . . . .

Reflejado en la tristeza de la infancia

moría un sueño en cada aventura,

mezclado entre inocencia y llanto

creció consumido en su existencia



|------------------------|

|------------------------|

|------------------------| x8

|------4/5----4/5-2-4-5--|

|--222-4/5-22-4/5-2-4-5--|

|--000-2/3-00-2/3-0-2-3--|

PM ... ..



De grande buscó la respuesta,

al saberlo su pecho quedó helado,

su sueño falleció a su costado,

el orgullo creció a lo más alto



|-------------------------------------|

|-------------------------------------|

|------------5------------------------| x4

|-2-22-2-----5-------7-----------5-/7-|

|-2-22-2-----3-------7-----------5-/7-|

|-0-00-0-------------5-----------3-/5-|

PM ....

Y al recorrer el solitario suelo,

entre cenizas de campos de batalla,

encontró flores forjadas por el viento

nacidas en un negro nido de almas, negro nido de almas



|------------------------|

|------------------------|

|------------------------| x8

|------4/5----4/5-2-4-5--|

|--222-4/5-22-4/5-2-4-5--|

|--000-2/3-00-2/3-0-2-3--|

PM ... ..



Intima herencia inmortal,

https://www.coveralia.com/acordes/nido-de-almas-malon.php

el ejemplo ungido en dolor,

heróico caído en tierra

por la patria que tanto amo.



Quizás tal vez el olor sea a ceniza

despedido de una cruz que se lamenta

por doliente al haber sido clavada

en la tierra de una guerra sangrienta, uh! Guerra sangrienta



|-----------------------------------|

|-----------------------------------|

|--9-/10-7-/9--9-/10-7-/9-9-/10-----| x8

|--9-/10-7-/9--9-/10-7-/9-9-/10-----|

|--7-/8--5-/7--7-/8--5-/7-7-/8------|

|-------------------------------00--|

PM ..



Solo







|---------------------|

|---------------------|

|--------5------------| x4

|-2-22-2-5---7---5-7--|

|-2-22-2-3---7---5-7--|

|-0-00-0-----5---3-5--|

PM ....



|------------------------|

|------------------------|

|------------------------| x8

|------4/5----4/5-2-4-5--|

|--222-4/5-22-4/5-2-4-5--|

|--000-2/3-00-2/3-0-2-3--|

PM ... ..



Fue su alma causa del servicio

emancipado hasta su propio orgullo

desenvaina del honor su sacrificio

y en su voz pide a Dios santo descanso.



Y al recorrer el solitario suelo,

entre cenizas de campos de batalla,

encontró flores forjadas por el viento

nacidas en un negro nido de almas, negro nido de almas



|-----------------------------------| |----------------------------------|

|-----------------------------------| |----------------------------------|

|--9-/10-7-/9--9-/10-7-/9-9-/10-----| x3 |--9-/10-7-/9--9-/10-7-/9-9-/10/9--|

|--9-/10-7-/9--9-/10-7-/9-9-/10-----| |--9-/10-7-/9--9-/10-7-/9-9-/10/9--|

|--7-/8--5-/7--7-/8--5-/7-7-/8------| |--7-/8--5-/7--7-/8--5-/7-7-/8-/7--|

|-------------------------------00--| |----------------------------------|

PM ..





Letra subida por: Anónimo

El acorde de Nido De Almas de Malon es una versión de la canción original realizada por colaboradores/usuarios de Coveralia.

¿Has encontrado algún error en esta página? Envíanos tu corrección del acorde