Quantcast
música
Buscador

Acorde de Monster - Paramore

Letra de Monster

Intro: Em B7 (2x)  





Verse 1:



Em

You were my conscience

C D

so solid now you're like water

Em

And we started drowning

C D

not like we'd sink any farther

Em

But I let my heart go

C D

it's somewhere down at the bottom

Em

But I'll get a new one

C D Em

come back from the hope that you've stolen





Chorus 1:



C

I'll stop the whole world

Em D

I'll stop the whole world

C

From turning into a

Em D

monster eating us alive

C

Don't you ever wonder

Em D

how we survive?

C

Well now that you're gone

D Em C D Em C D

the world is ours





Verse 2:



Em

I'm only human

C D

I've got a skeleton in me

Em

but I'm not the villain

C D

despite what you're always preaching

Em

Call me a traitor

C D

I'm just collecting your victims

Em

And they're getting stronger

C D Em Em

I hear them calling calling





(Repeat Chorus 1)





Guitar Solo: Em G D D/F# C (2x)



Guitar 2:



ocultar esta pestaña

e|-----------------------------------------------------|

https://www.coveralia.com/acordes/monster-paramore.php

B|-5-5-5----------3-3-3--------------------------------|

G|-------4--4-4-4-------4--4-4-4--0-0--4--0--0-0--4--0-|

D|-----------------------------------------------------|

A|-----------------------------------------------------|

E|-----------------------------------------------------|



e|----------------2-2-2--------------2---3-----5--3-|

B|-5-5-5----------------3--3-3-3-0-1---0----3-------|

G|-------4--4-4-4-----------------------------------|

D|--------------------------------------------------|

A|--------------------------------------------------|

E|--------------------------------------------------|







Bridge:



Am

Well, you'd better

G/B

strength in solutions

C G D

But I liked the tension

Am

And not always

G/B

knowing the answers

C

You're gonna lose it

D Em

You're gonna lose it





Chorus 2:



C

I'll stop the whole world

Em D

I'll stop the whole world

C

From turning into a

Em D

monster eating us alive

C

Don't you ever wonder

Em D

how we survive?

C

Well now that your gone

D

the world





Chorus 3:



C

I'll stop the whole world

Em D

I'll stop the whole world

C

From turning into a

Em D

Monster eating us alive

C

Don't you ever wonder

Em D

how we survive?

C

Well now that your gone

D

the world is ours

Letra subida por: Anónimo

Discos en los que aparece este acorde: Monster (Cd Single) , , Singles Club Ep

El acorde de Monster de Paramore es una versión de la canción original realizada por colaboradores/usuarios de Coveralia.

¿Has encontrado algún error en esta página? Envíanos tu corrección del acorde