música
Buscador

Acorde de Money - Pink Floyd

Letra de Money

Intro:  





Bm

E|--------------------------------|

B|--------------------------------|

G|-----4--------------------------|

D|--------4-----------------------|

A|--2--------2--------------5--2--|

E|--------------0--2--5-----------|





Verso 1:





( Bm )

Money, get away

Get a good job with more pay and your OK

Money It?s a gas

Grab that cash with both hands and make a stash





Bm

E|--------------------------------|

B|--------------------------------|

G|-----4--------------------------| ( Tocar durante o verso )

D|--------4-----------------------|

A|--2--------2--------------5--2--|

E|--------------0--2--5-----------|





Refrão 1:





F#m Fm - Em

New car, caviar, four stars daydream

Em Bm

Think I?ll buy me a football team





( Intro )





Verso 2:





https://www.coveralia.com/acordes/money-pink-floyd.php

( Bm )

Money, get back

I?m all right Jack keep your hands of my stack

Money It?s a hit { Tocar ?Intro? durante o Verso 2. }

Don?t give me that do goody good bullshit





Refrão 2:





F#m Fm - Em

I?m in the hi fidelity fist class travelling se

Em Bm

And I think, I need, a Lear jet





( Intro )





Verso 3:





( Bm )

Money, It?s a crime

Share It fairly but don?t take a slice of my pie { Tocar ?Intro? durante o Verso 3. }

Money so they say

Is the root of all evil today





Refrão 3:





F#m Fm - Em

But if you ask for a rise It?s no surprise that they?re

Em Bm

Giving none away





( Intro )





Solo ( Sax )







Letra subida por: Anónimo

El acorde de Money de Pink Floyd es una versión de la canción original realizada por colaboradores/usuarios de Coveralia.

¿Has encontrado algún error en esta página? Envíanos tu corrección del acorde