música
Buscador

Acorde de Money (That's What I Want) - The Beatles

Letra de Money (That's What I Want)

Money 



A---------------------------------

E---0-0-3-0-5-3-0-3-0-5---5-5-3---



e---------7-7-7-------5-5-5-

B---------7-7-7-------5-5-5--

G---------8-8-8-------6-6-6---

D---9-9-9-9-9-9-7-7-7-7-7-7----

A---9-9-9-9-9-9-7-7-7-7-7-7-----

E---7-7-7-7-7-7-5-5-5-5-5-5-0-0-3-0-5-3-0 B5





E5 A5 E5

The best thing in life are free

B5

You can keep them for the birds and bees Now give me



Chorus:

A5

Money (that's what I want)

E5

That's what I want (that's what I want)

B5 A5

That's what I want (that's what I want)

E5 A5 E5 B5

That's what I want



E5 A5 E5

You never give me a thrill

B5

No lovin' don't pay me bills Now give me



Chorus:

A5

Money (that's what I want)

E5

https://www.coveralia.com/acordes/money--that-s-what-i-want--the-beatles.php

That's what I want (that's what I want)

B5 A5

That's what I want (that's what I want)

E5 A5 E5 B5

That's what I want





A---------------------------------

E---0-0-3-0-5-3-0-3-0-5---5-5-3---



e---------7-7-7-------5-5-5-

B---------7-7-7-------5-5-5--

G---------8-8-8-------6-6-6---

D---9-9-9-9-9-9-7-7-7-7-7-7----

A---9-9-9-9-9-9-7-7-7-7-7-7-----

E---7-7-7-7-7-7-5-5-5-5-5-5-0-0-3-0-5-3-0 B5





E5 A5 E5

You never give me a thrill

B5

No lovin' don't pay me bills Now give me





Chorus:

A5

Money (that's what I want)

E5

That's what I want (that's what I want)

B5 A5

That's what I want (that's what I want)

E5 A5 E5 B5

That's what I want





Repeat chorus till you get blue in the face

El acorde de Money (That's What I Want) de The Beatles es una versión de la canción original realizada por colaboradores/usuarios de Coveralia.

¿Has encontrado algún error en esta página? Envíanos tu corrección del acorde