música
Buscador

Acorde de Miriam - Norah Jones

Letra de Miriam

Capo 3rd fret



intro: G

G

Miriam

Em

That's such a pretty name

C

I'm gonna say it when

G

I make you cry



G

Miriam

Em

You know you done me wrong

C

I'm gonna smile when

G

You say goodbye



F Em

Now I'm not the jealous type

F Em

Never been the killing kind

F Em

But you know I know what you did

F D

So don't put up a fight



G

Miriam

Em

When you were having fun

C

In my big pretty house

G

Did you think twice?



G

Miriam

Em

Was it a game to you?

C

Was it a game to him?

G

Don't tell me lies



F Em

I know he said it's not your fault

F Em

But I don't believe that's true

F Em

I've punished him from ear to ear

F D

Now I've saved the best for you



G Em C G x2



F Em

And I'm trying not to hurt you

Am

Cause you might not be that bad

https://www.coveralia.com/acordes/miriam-norah-jones.php

F Em D

But it takes a lot to make me go this mad



G

Oh Miriam

Em

That's such a pretty name

C

And I'll keep saying it

G

Until you die



G

Miriam

Em

You know you done me wrong

C

I'm gonna smile when

G

You say goodbye

Em

You know you done me wrong

C

I'm gonna smile when

G

I take your life

Em C G Em C G

Mmm, mmm, mmm



I like to play everything like this, don't know if its totally right though

Verse/main part

G Em

e|--------------------------------------------------------------|

b|--------------------------------------------------------------|

g|--------0---------------0-------------0---------------0-------|

d|--------------------------------------------------------------|

a|--2---2---2---2---2---2---2-----2---2---2---2---2---2---2---0-|

e|3---3-------3---3---3-------3-0---0-------0---0---0-------0---|

C G

e|----------------------------------------------------------------|

b|----------------------------------------------------------------|

g|--------0---------------0---------------0---------------0-------|

d|--2---2---2---2---2---2---2---2---------------------------------|

a|3---3-------3---3---3-------3-----2---2---2---2---2---2---2---2-|

e|--------------------------------3---3-------3---3---3-------3---|

2nd part

F Em

e|----------------------------------------------------------------|

b|----------------------------------------------------------------|

g|--------0---------------0---------------0---------------0-------|

d|----------------------------------------------------------------|this x3

a|--3---3---3---3---3---3---3---3---2---2---2---2---2---2---2---2-|

e|1---1-------1---1---1-------1---0---0-------0---0---0-------0---|

F D

e|-------------------------------2~|

b|-------------------------------3~|

g|--------0---------------0------2~|

d|-------------------------------0~|

a|--3---3---3---3---3---3---3------|

e|1---1-------1---1---1-------1----|



Letra subida por: Anónimo

El acorde de Miriam de Norah Jones es una versión de la canción original realizada por colaboradores/usuarios de Coveralia.

¿Has encontrado algún error en esta página? Envíanos tu corrección del acorde