música
Buscador

Acorde de Mingusings - Of Montreal

Letra de Mingusings



~ = Let ring.

x = Mute note





Guitar melody (the one that B.P. plays live):



e|-----------------|

B|-----------------|

G|-----------------|

D|--666---66x6x6---|

A|-----6xx------6--|

E|-----------------| (x4)



e|---------------------|

B|---------------------|

G|---------------------|

D|--888-6-xx-88x8xxx6--|

A|---------------------|

E|---------------------| (x2)



Keyboard line (studio version):



e|-------------------|

B|-------------------|

G|------------5------|

D|--666---66~--------|

A|-----6~-------6----|

E|-------------------| (x4)



e|--------------------------------------|

B|--------------------------------------|

G|--6-----------6------6---6-----5------|

D|----6-4-3-------6-4--------6-4--------|

A|--------------------------------------|

E|--------------------------------------|





------------------------------------



Chords:





G#

Boy I wish you weren't such a paranoid actress



And I the assassinated candidate

C#

I feel like an accidental species



Some mutant love child, never meant to be





G#

No motion dancing



Feel like we're an impossibility



Tried to keep the heart in the head

C#

But I was so down on the closing night



Couldn't even fake a smile



Wanted to fire all my friends, and

D# G#

just start over again





C# D#





G#

Sisters don't you know



Our shit is only going to get better



Don't you know, don't you know, don't you know

C# D#

I feel like the last time is going to be my final collapse





G#

https://www.coveralia.com/acordes/mingusings-of-montreal.php

Sisters don't you know



Our shit is only going to get better



Oh, oh, oh

C#

I feel like the last time is going to be



My final collapse





D#





B

I know from past experience

A

He never takes it easy on his readers

G

And you become a foreign substance lying

D

in your familial bed





(Buildup)





|B5 |C#5 D5 |G5 |G5 F#5

F#5 |G5 G#5 A5 A#5|





(Heavy part)





Bm C#m D G F#m

F#m G G#m

Technology makes such an ugly mother



Am A#m Bm C#m D

F#m G, F#m G G#m

But no lessons does it offer, only chaos scenarios



Am A#m Bm C#m D

G F#m G, F#m G G#m

and the dream that we've inherited, look, it's just random numbers





Am A#m Bm C#m D

Still they love you at the office 'cause you've

G F#m G F#m G

Am A#m Bm

been the subject of countless masturbation fanta sies



C#m D G, G F#m G, F#m

G#m Am A#m

Aah



Bm C#m E

--------------------------------------------------





During the Gender Mutiny Tour they used to play an extra minute with the same BPM

as the heavy part.

Instead of playing the last three chords, play



1--2--3--4-|1--2--3--4-|1--2--3--4-|1--2--3--4-|



Bm Bm C#m E F#m G#m



A

Sister don't you know

F#m

Our shit is only gonna get better

B A G#m

I feel like the last time is gonna be

B E

My final relapse



Repeat a few times, end on A.





Letra subida por: Anónimo

Discos en los que aparece este acorde: Skeletal Lamping

El acorde de Mingusings de Of Montreal es una versión de la canción original realizada por colaboradores/usuarios de Coveralia.

¿Has encontrado algún error en esta página? Envíanos tu corrección del acorde