música
Buscador

Acorde de Mi Madre - Sandro

Letra de Mi Madre



La intro debe puntearse a la maxima velocidad posible.



E-------------8-9-11--------------------------------------------------

B------8-9-11----------------------11-11-11-11-11-9-9-9-9-9------------

G-9-10----------------9-9-9-9-9-9-9--------------------------9-9-9-9-9-

D----------------------------------------------------------------------

A----------------------------------------------------------------------

E----------------------------------------------------------------------



E-----------8---8---------8----8---------------------------------------

B-----8-9-11--9---11-9------11---11-9-8-9-8----------------------------

G-9-10-----------------10--------------------10-8-10-8-----------------

D-------------------------------------------------------11-10-11-------

A----------------------------------------------------------------------

E----------------------------------------------------------------------



E-------------8--------------------------------------------------------

B------8-9-10---9------------------------------------------------------

G-9-10------------10---------------------------------------------------

D----------------------------------------------------------------------

A----------------------------------------------------------------------

E----------------------------------------------------------------------



MI MADRE

Fm C7-G/C7 C7-G/C7 Fm

Todos tienen una madre ninguno como la mia



(G sost--Asost-C ) Fm C7 G/C7 Fm

Que arde como lucesita haciendome compañia



Fm C7-G/C7-C7 G/C7 Fm

La vida me entro en mi rancho sencillita como es ella



(Gsost-Asost-C) Fm C7 G/C7 Fm

Y sus ojitos se apagan como el fulgor de una estrella



D sostenido Gsost

Yo le pido a DIOS reznado que mi mama no se muera

https://www.coveralia.com/acordes/mi-madre-sandro.php



(Gsost Asost C) Fm C7-G/C7 Fm

Que viva dentro e mi rancho como estampita si quiera



Dsostenido Gsostenido

Si alguna vez madrecita tu te me vas para el cielo



(Gsost-Asost-C) C7 G/C7 Fm

llevame mama querida no me dejes yo te quiero



Fm C7-G/C7-C7 G/C7 Fm

Pero su sombra me alcanza como bendicion divina



Gsost-Asost-C) Fm C7 G/C7-Fm

Es el angel de la guarda de mi vida peregrina



Fm C7-G/C7-C7 G/C7 Fm

Sombra del arbol plantado en el patio solaniego



(Gsost-Asost-C) Fm C7 G/C7 Fm

Retoño fiel que traduce la voluntad de mi ruego.





EADGBe

111111 Fm

033000



032310 C7

444444G sostenido

066500

666666 A sostenido

088700

888888 C

01010900

302310 G/C7

666666 D sostenido

008780

Letra subida por: Anónimo

Discos en los que aparece este acorde: Para Mama

El acorde de Mi Madre de Sandro es una versión de la canción original realizada por colaboradores/usuarios de Coveralia.

¿Has encontrado algún error en esta página? Envíanos tu corrección del acorde