música
Buscador

Acorde de Metà - Sonohra

Letra de Metà



Bm A5 G#5 G5 Em

-----------------------------------------------------------------0--

---------------------0----------0--------------3-------------0-----0-

-------7-----------------------------------------0-------0-----0-----

---------9-------------7-----------------------------------2---------

----9-------------7-----------6----6--------5----------2-------------

-7--------------5-----------4------------3-----------0---------------

F#

---------------0------------------------------------------------------

----------0------0-----------------------------------------------------

------3-----3----------------------------------------------------------

--------4-------------------------------------------------------------

----4-----------------------------------------------------------------

-2--------------------------------------------------------------------



En la primera parte (intro y verso) usar arpegios para cada acorde

Areglar acordes del estribillo y // es cambio rapido

Intro

Bm-A5-G#5-G5-Em-F# x2



Verso

Bm A5 G#5

Cerco la chiave del tempo

G5 Em

viaggio in silenzio

F#

sospeso a metà...

Bm A5 G#5

Filtro la luce del mondo

G5 Em F#

nessun sentimento mi libererà.

Em F#

Perché mai, soffro così

Bm-A5-G#5//Em

rimpiangerò la libertà

Em F# G5 slide A A5

non sarò più un uomo a metààà!

D5

La notte è vicina

A#5 C5 D5

non lo sai

D5

La fine è vicina

A#5 C5 G5

https://www.coveralia.com/acordes/meta-sonohra.php

non lo sai



Sarò giudicato anch'ioesta parte saquenla uds

e tu non lo saprai mai...esta parte saquenla uds

Bm A5 G#5

Sembra trascritto nel vento

G5 Em

l'amore che ho pianto

F#

solo a metà...

B, A5 G#5

Rendo la vita il mistero

G5 Em F#

che solo credo mi salverà

Em F#

Perché mai, brucio così

Bm A5 G#5//Em

rimpiangerò la verità

Em F# G5 slide A A5

non vedrai più un uomo a metààà!

D5

La notte è vicina

A#5 C5 D5

non lo sai

D5

La fine è vicina

A#5 C5 G5

non lo sai

Sarò giustiziato anch'ioparte para sacar

e tu non lo saprai mai...parte para sacar



Puente sacar

D5

E tu non lo saprai mai...



La notte è vicina

A#5 C5 D5

non lo sai

D5

La fine è vicina

A#5 C5 G5

non lo sai





Letra subida por: Anónimo

Discos en los que aparece este acorde: Meta

El acorde de Metà de Sonohra es una versión de la canción original realizada por colaboradores/usuarios de Coveralia.

¿Has encontrado algún error en esta página? Envíanos tu corrección del acorde