música
Buscador

Acorde de Meet Virginia - Train

Letra de Meet Virginia

Verse 1 

~~~~~~~

G C Am D

She doesn't own a dress her hair is always a mess

G C Am D

You catch her stealing she won't confess she's beautiful

G C Am D

Smokes a pack a day no wait that's me but anyway

G C Am D

She doesn't care a thing about that hair she thinks I'm beautiful

G C Am D

Meet Virginia

G C Am D

She never compromises loves babies and surprises

G C Am D

Wears high-heels when she exercises ain't that beautiful

G C Am D

Meet Virginia



Chorus

~~~~~~

Em C Em

Well she wants to be the queen

C Em

Then she thinks about her scene

C Em

Pulls her hair back as she screams

C

I don't really want to be the queen



ocultar esta pestaña Chorus Lead

~~~~~~~~~~~

e-3----3---3---3--3/7-----7-----7-----7-8-7/10------10------10------10-----10/8 /7-|

B-3----3---3---3--3/8-----8-----8-----8-8-8/12-12------12------12------12--12/10/8-|

G-0--0---0---0----0/7---7-----7-----7-------------12------12------12-------------7-|

D----------------------------------------------------------------------------------|

A----------------------------------------------------------------------------------|

E----------------------------------------------------------------------------------|



|-7-7---7---7-|

|-8-8---8---8-|

|-7-7---7---7-|

|-------------|

|-------------|

|-------------|



Verse 2

~~~~~~~

G C Am D

Her daddy wrestles alligators her mama works on carburetors

G C Am D

Her brother is a fine mediator for the president

G C Am D

https://www.coveralia.com/acordes/meet-virginia-train.php
Here she is again on the phone just like me hates to be alone

G C Am D

We just like to sit at home live on the president

G C

Meet Virginia



Chorus

~~~~~~

Em C Em

Well she wants to live her life

Em C Em

Then she thinks about her life

Em C Em

Pulls her hair back as she screams

C

I don't really want to live this life



Solo

~~~~

Em, C, D



Verse 3

~~~~~~~

G C Am D

She only drinks coffee at midnight when the moment

G C Am D

Is not right her timing is quite unusual

G C Am D

You see her confidence is tragic her intuition

G C Am D

Magic in the shape of a body unusual

G C Am D G C

Meet Virginia I can't wait to meet Virginia, yeah



Outro Chorus

~~~~~~~~~~~~

Em C Em

Well she wants to be the queen

C Em

And she thinks about her scene

Em C Em

Well she wants to live her life

Em C Em

And she thinks about her lives

Em C Em

Pulls her hair back as she screams

C Em

I don't really want to be the queen

C Em

I don't really want to be the queen

C

I don't really want to live this...

Letra subida por: Anónimo

Discos en los que aparece este acorde: Alive At Last , , Train , Greatest Hits

El acorde de Meet Virginia de Train es una versión de la canción original realizada por colaboradores/usuarios de Coveralia.

¿Has encontrado algún error en esta página? Envíanos tu corrección del acorde