música
Buscador

Acorde de May We All (Feat. Tim Mcgraw) - Florida Georgia Line

Letra de May We All (Feat. Tim Mcgraw)



Intro

Em G |D |C | ||x2

-----------------|-----------|---------|---------|

-pb15r-b15--12--\|7---7b(8)--|5--------|---------|

-----------------|-----------|---------|---------|

-----------------|-----------|---------|---------|

-----------------|-----------|---------|---------|

-----------------|-----------|---------|---------|





Verse 1

Em G D C

May we all get to grow up in our red white and blue little town

Em G D C

Get a one star hand me down Ford to try to fix up

Em G D

With some part time cash from driving a tractor

C

Find a sweet little thang, wears your ball cap backwards

Em G D C

Kinda place you can't wait to leave but nobody does

Am

Cause you miss it too much





Chorus

G D

May we all know that nothing ain't cool 'til you wear the new off

Em

The sound of a quarter rollin' down a jukebox

C G

Play the Travis Tritt right above the Tupac til you get lost down some road

D

Slow rolling with the top off the back of a Bronco

Em

Buy a cold sixer with a cashed in lotto

C

She's smilin' with her hair blowing out the window, where you 'bout to go?

Em D/F# G G/B C G

Yeah you learn to fly and if you can't then you just free fall, may we all





Verse 2

Em G D C

May we all get to see those fields of green turn gold

Em G D C

Watch a marching band play with the harvest moon coming up

Em G D

And know that fifteen minutes of famous

C

Ain't gonna be what makes us or breaks us but

Em G D C

We'll all be watching the TV the day that it comes







Chorus

G D

https://www.coveralia.com/acordes/may-we-all--feat--tim-mcgraw--florida-georgia-line.php

May we all know that nothing ain't cool 'til you wear the new off

Em

The sound of a quarter rollin' down a jukebox

C G

Play the Travis Tritt right above the Tupac til you get lost down some road

D

Slow rolling with the top off the back of a Bronco

Em

Buy a cold sixer with a cashed in lotto

C

She's smilin' with her hair blowing out the window, where you 'bout to go?

Em D/F# G G/B C G

Yeah you learn to fly and if you can't then you just free fall, may we all





Solo

(G) | |D | |

--------10------|--------------|---10-------|--------------|----

-10b(12)--10b---|---pb10r-8-10-|10b--10br---|-------8------|\5--

----------------|--------------|------------|--------------|----

----------------|--------------|------------|--------------|----

----------------|--------------|------------|--------------|----

----------------|--------------|------------|--------------|----



(keys) |Em | |C | ||

-------|----------------|----------------|--------------------|--------------|

-------|------------8p5-|--5p3-----------|12p10\8h10p8h10p8---|--------------|

-----7-|9p7---7---------|--------4p2p0---|------------------9p|7h9p7---7/9-12|

-7h9---|----9---9-------|----------------|--------------------|------9-------|

-------|----------------|----------------|--------------------|--------------|

-------|----------------|----------------|--------------------|--------------|





Bridge

G D

May we all do a little bit better than the first time

Em

Learn a little something from the worst times

C

Get a little stronger from the hurt times





Chorus

G D

May we all get to have a chance to ride the fast one

Em

Walk away wiser when we crashed one

C

Keep hoping that the best one is the last one

Em D/F# G G/B C

Yeah you learn to fly and if you can't then you just free fall

G D Em C

May we all May we all May we all May we all

G D Em C

May we all May we all May we all May we all

Em D/F# G G/B C G

Yeah you learn to fly and if you can't then you just free fall, may we all

Letra subida por: Anónimo

Discos en los que aparece este acorde: Dig Your Roots , The Acoustic Sessions

El acorde de May We All (Feat. Tim Mcgraw) de Florida Georgia Line es una versión de la canción original realizada por colaboradores/usuarios de Coveralia.

¿Has encontrado algún error en esta página? Envíanos tu corrección del acorde