música
Buscador

Acorde de Marigold - Foo Fighters

Letra de Marigold

(Normal Tuning)





Verse/Bridge

E C# B C

e||--0--0/0--0-0-0-0-0-0-0/0--0--0-0-0-0-0-0-0--||

B||--0--0/0--0-0-0-0-0-0-0/0--0--0-0-0-0-0-0-0--||

G||--9--9/6--6-6-6-6-6-6-6/4--45--5-5-5-5-5-5-5--||

D||--9--9/6--6-6-6-6-6-6-6/4--45--5-5-5-5-5-5-5--||

A||--7--7/4--4-4-4-4-4-4-4/2--23--3-3-3-3-3-3-3--||

E||-----------------------------------------------||





Chorus

G5 A5 E5 Ab5

e||--------------------------------------------------------------------------|

B||--------------------------------------------------------------------------|

G||----------------------------------------9-9-9-9-9-9-9--9-x6-6-6-6-6--6-x-|

D||--5-5-5-5-5-5-5--5-x/7-7-7-7-7-7-7--7-x-9-9-9-9-9-9-9--9-x6-6-6-6-6--6-x-|

A||--5-5-5-5-5-5-5--5-x/7-7-7-7-7-7-7--7-x-7-7-7-7-7-7-7--7-x4-4-4-4-4--4-x-|

E||--3-3-3-3-3-3-3--3-x/5-5-5-5-5-5-5--5-x-----------------------------------|



C5 D5

e|--------------------------------------||

B|--------------------------------------||

G|-5-5-5-5-5-5-5-5-5-5-5-5-5-5-5/7-x-7--||

D|-5-5-5-5-5-5-5-5-5-5-5-5-5-5-5/7-x-7--||

A|-3-3-3-3-3-3-3-3-3-3-3-3-3-3-3/5-x-5--||

E|--------------------------------------||



https://www.coveralia.com/acordes/marigold-foo-fighters.php



==================

= Lyrics & Tempo =

==================



(Verse)

He's there in case I wandered off

E5 C#5 B5 C5



He's scared because I warned

E5 C#5 B5 C5



He's scared in case I want it all

E5 C#5 B5 C5



He's scared 'cause I want

E5 C#5 B5 C5





(Chorus)

All in all the clock is slow

G5 A5



Six color pictures all in a row

E5 Ab5



Of a marigold

C5 D5



Letra subida por: Anónimo

Discos en los que aparece este acorde: Skin And Bones , Live At Wembley Stadium (Dvd) , Skin And Bones (Dvd)

El acorde de Marigold de Foo Fighters es una versión de la canción original realizada por colaboradores/usuarios de Coveralia.

¿Has encontrado algún error en esta página? Envíanos tu corrección del acorde