música
Buscador

Acorde de Man On The Moon - Rem

Letra de Man On The Moon

    C                                  D4 

e|-0-------0---0-------0---0---0-|-0-------0---0-------0---0---0-|

B|-1-------1---1-------1---1---1-|-1-/3----3---3-------3---3---3-|

G|-0-------0---0-------0---0---0-|-0-------0---0-------0---0---0-|

D|-2-------2---2-------2---2---2-|-2-/4----4---4-------4---4---4-|

A|-3-------3---3-------3---3---3-|-3-/5----5---5-------5---5---5-|

E|-------------------------------|-------------------------------|

C

e|-0-------0---0-------0---0---0-|-0-------0---0-------0---0---0-|

B|-3--1---1---1-------1---1---1-|-1-------1---1-------1---1---1-|

G|-0-------0---0-------0---0---0-|-0-------0---0-------0---0---0-|

D|-4--2---2---2-------2---2---2-|-2-------2---2-------2---2---2-|

A|-5--3---3---3-------3---3---3-|-3-------3---3-------3---3---3-|

E|-------------------------------|-------------------------------|





C D4

Mott the Hoople and the game of Life

C

Yeah, yeah, yeah, yeah

C D4

Andy Kaufman in the wrestling match

C

Yeah, yeah, yeah, yeah

C D4

Monopoly, twenty one, checkers, and chess

C

Yeah, yeah, yeah, yeah

C D4

Mister Fred Blassie and a breakfast mess

C

Yeah, yeah, yeah, yeah

C D4

Let's play Twister, let's play Risk

C

Yeah, yeah, yeah, yeah

C D4

I'll see you in heaven if you make the list

C

Yeah, yeah, yeah, yeah





Am G

Now Andy did you hear about this one?

Am G

Tell me are you locked in the punch?

Am G

Andy are you goofing on Elvis?

C D

Hey baby, are we losing touch?



Refrão



G Am C

If you believed

Bm G Am D

They put a man on the moon, man on the moon

G Am C

If you believe

Bm Am

There's nothing up my sleeve, then nothing is cool





C D4

Moses went walking with a staff of wood

C

Yeah, yeah, yeah, yeah

C D4

Newton got beaned by the apple good

C

Yeah, yeah, yeah, yeah

C D4

Egypt was troubled by the horrible asp

C

Yeah, yeah, yeah, yeah

C D4

Mr. Charles Darwin had the gall to ask

https://www.coveralia.com/acordes/man-on-the-moon-rem.php

C

Yeah, yeah, yeah, yeah



Am G

Now Andy did you hear about this one?

Am G

Tell me are you locked in the punch?

Am G

Andy are you goofing on Elvis?

C D

Hey baby, are you having fun?



Refrão



Solo 01

Em D Em



e|---------12------------|-------------------------|--------12------------------|

B|-/-12-------12---12----|------7----8p7------0----|---/-12-----12---12---------|

G|-----------------------|-----7------7------------|----------------------------|

D|-----------------------|-/-7---------------------|----------------------------|



D Em D

e|-----------------------|---------12--------------|----------------------------|

B|-----7----8p7--------0-|-/-12-------12---12------|----------7---7-----7--8p7--|

G|-------7------7--------|-------------------------|-----7---7------7----------7|

D|-/-7-------------------|-------------------------|-/-7--------7-----7---------|





C D4

Here's a little agit for the never believer

C

Yeah, yeah, yeah, yeah

C D4

Here's a little ghost for the offering

C

Yeah, yeah, yeah, yeah

C D4

Here's a truck stop instead of St. Peter's

C

Yeah, yeah, yeah, yeah

C D4

Mr. Andy Kaufman's gone wrestling

C

Yeah, yeah, yeah, yeah



Am G

Now Andy did you hear about this one?

Am G

Tell me are you locked in the punch?

Am G

Andy are you goofing on Elvis?

C D

Hey baby, are we losing touch?



Refrão



Solo 02

Em D Em



e|-/-12----12------------|-------------------------|---------12--------------|

B|-/-12-------12---------|------7----8p7------0----|---/-12-----12-----------|

G|-/-12----------12------|--------7--------7-------|---/-12--------12--------|

D|-----------------------|-/-7---------------------|-------------------------|



D Em D

e|-----------------------|---------12--------------|---------------------------|

B|-----7----8p7--------0-|-/-12-------12-------0---|-----7-----7-----7--8p7--7-|

G|-------7------7--------|-/-12----------12--------|-/-7---7-----7-------------|

D|-/-7------------7------|-------------------------|-/-7-----7-----7-----------|



Repete refrão

G Am C Bm Am Em

If you believe there's nothing up my sleeve, then nothing is cool





Letra subida por: Anónimo

El acorde de Man On The Moon de Rem es una versión de la canción original realizada por colaboradores/usuarios de Coveralia.

¿Has encontrado algún error en esta página? Envíanos tu corrección del acorde