Quantcast
música
Buscador

Acorde de Lugares Errados - Saiko

Letra de Lugares Errados

Tuning: E, A, D, G, B, e





Intro: A#, G#, F, D# (x2)





Riff:



A# G# F

Embargando mentes a la mesura



D#

y los problemas que se suman



A# G# F

tu amor se entrecruza



D#

y las heridas se hacen profundas.





Bridge:



A# G#

Esto de estar en lugares errados



F D#

con gente equivocada además,



A# G#

esto es cansarme de tus engaños,



F D#

esto de estar en lugares extraños.





Coro: (x2)



C D

Veo alejarse la ciudad



C D

crecen mis ganas de despegar



C D E

soltar mis alas y volar.





Intro: (x1)





Riff:

Entregamos todo a esta rutina

y el dinero aún nos maquilla

tu amor ya no me domina,

puedo volver a ser la misma.



https://www.coveralia.com/acordes/lugares-errados-saiko.php



Bridge:

Esto de estar en lugares errados

con gente equivocada además,

esto es cansarme de tus engaños,

esto de estar en lugares extraños.





Coro:(x2)

Veo alejarse la ciudad

crecen mis ganas de despegar

soltar mis alas y volar.





Solo

e|----------------------------------------------

B|------------------16--------------------------

G|-/12h13(vibrato)------12-13-12--13-13-12-13/8-

D|----------------------------------------------

A|----------------------------------------------

E|----------------------------------------------



------------------------------------------------

---------------------------------------------16-

--13-13-------13-13-12-13-13b14(13)-12-13-13----

--------13h15-----------------------------------

------------------------------------------------

------------------------------------------------



-------------------------------------|

-------------------------------------|

12--13-13-13-13/14~~~15~~~17~~~~~~~--|

-------------------------------------|

-------------------------------------|

-------------------------------------|





Coro: (x2)

Veo alejarse la ciudad

crecen mis ganas de despegar

soltar mis alas y volar.





Outro:



C D

Pa pa pa y na na y ya y ya



C D

Pa pa pa y na na y ya y ya



C D E

Pa pa pa y pa pa pa y ya







Letra subida por: Anónimo

Discos en los que aparece este acorde: Campos Finitos

El acorde de Lugares Errados de Saiko es una versión de la canción original realizada por colaboradores/usuarios de Coveralia.

¿Has encontrado algún error en esta página? Envíanos tu corrección del acorde